  0
SECTION
  2
HEADER
  9
$ACADVER
  1
AC1015
  9
$ACADMAINTVER
 70
    20
  9
$DWGCODEPAGE
  3
ANSI_1252
  9
$INSBASE
 10
0.0
 20
0.0
 30
0.0
  9
$EXTMIN
 10
-19.00000000000023
 20
0.0
 30
0.0
  9
$EXTMAX
 10
79.53692812096076
 20
161.0436092882047
 30
0.0
  9
$LIMMIN
 10
0.0
 20
0.0
  9
$LIMMAX
 10
12.0
 20
9.0
  9
$ORTHOMODE
 70
     0
  9
$REGENMODE
 70
     1
  9
$FILLMODE
 70
     1
  9
$QTEXTMODE
 70
     0
  9
$MIRRTEXT
 70
     0
  9
$LTSCALE
 40
1.0
  9
$ATTMODE
 70
     1
  9
$TEXTSIZE
 40
0.2
  9
$TRACEWID
 40
0.05
  9
$TEXTSTYLE
  7
Standard
  9
$CLAYER
  8
0
  9
$CELTYPE
  6
ByLayer
  9
$CECOLOR
 62
   256
  9
$CELTSCALE
 40
1.0
  9
$DISPSILH
 70
     0
  9
$DIMSCALE
 40
1.0
  9
$DIMASZ
 40
0.18
  9
$DIMEXO
 40
0.0625
  9
$DIMDLI
 40
0.38
  9
$DIMRND
 40
0.0
  9
$DIMDLE
 40
0.0
  9
$DIMEXE
 40
0.18
  9
$DIMTP
 40
0.0
  9
$DIMTM
 40
0.0
  9
$DIMTXT
 40
0.18
  9
$DIMCEN
 40
0.09
  9
$DIMTSZ
 40
0.0
  9
$DIMTOL
 70
     0
  9
$DIMLIM
 70
     0
  9
$DIMTIH
 70
     1
  9
$DIMTOH
 70
     1
  9
$DIMSE1
 70
     0
  9
$DIMSE2
 70
     0
  9
$DIMTAD
 70
     0
  9
$DIMZIN
 70
     0
  9
$DIMBLK
  1

  9
$DIMASO
 70
     1
  9
$DIMSHO
 70
     1
  9
$DIMPOST
  1

  9
$DIMAPOST
  1

  9
$DIMALT
 70
     0
  9
$DIMALTD
 70
     2
  9
$DIMALTF
 40
25.4
  9
$DIMLFAC
 40
1.0
  9
$DIMTOFL
 70
     0
  9
$DIMTVP
 40
0.0
  9
$DIMTIX
 70
     0
  9
$DIMSOXD
 70
     0
  9
$DIMSAH
 70
     0
  9
$DIMBLK1
  1

  9
$DIMBLK2
  1

  9
$DIMSTYLE
  2
Standard
  9
$DIMCLRD
 70
     0
  9
$DIMCLRE
 70
     0
  9
$DIMCLRT
 70
     0
  9
$DIMTFAC
 40
1.0
  9
$DIMGAP
 40
0.09
  9
$DIMJUST
 70
     0
  9
$DIMSD1
 70
     0
  9
$DIMSD2
 70
     0
  9
$DIMTOLJ
 70
     1
  9
$DIMTZIN
 70
     0
  9
$DIMALTZ
 70
     0
  9
$DIMALTTZ
 70
     0
  9
$DIMUPT
 70
     0
  9
$DIMDEC
 70
     4
  9
$DIMTDEC
 70
     4
  9
$DIMALTU
 70
     2
  9
$DIMALTTD
 70
     2
  9
$DIMTXSTY
  7
Standard
  9
$DIMAUNIT
 70
     0
  9
$DIMADEC
 70
     0
  9
$DIMALTRND
 40
0.0
  9
$DIMAZIN
 70
     0
  9
$DIMDSEP
 70
    46
  9
$DIMATFIT
 70
     3
  9
$DIMFRAC
 70
     0
  9
$DIMLDRBLK
  1

  9
$DIMLUNIT
 70
     2
  9
$DIMLWD
 70
    -2
  9
$DIMLWE
 70
    -2
  9
$DIMTMOVE
 70
     0
  9
$LUNITS
 70
     2
  9
$LUPREC
 70
     4
  9
$SKETCHINC
 40
0.1
  9
$FILLETRAD
 40
0.0
  9
$AUNITS
 70
     0
  9
$AUPREC
 70
     0
  9
$MENU
  1
.
  9
$ELEVATION
 40
0.0
  9
$PELEVATION
 40
0.0
  9
$THICKNESS
 40
0.0
  9
$LIMCHECK
 70
     0
  9
$CHAMFERA
 40
0.0
  9
$CHAMFERB
 40
0.0
  9
$CHAMFERC
 40
0.0
  9
$CHAMFERD
 40
0.0
  9
$SKPOLY
 70
     0
  9
$TDCREATE
 40
2455156.629926852
  9
$TDUCREATE
 40
2455156.213260185
  9
$TDUPDATE
 40
2457931.416018553
  9
$TDUUPDATE
 40
2457930.999351887
  9
$TDINDWG
 40
0.0038597454
  9
$TDUSRTIMER
 40
0.0038595602
  9
$USRTIMER
 70
     1
  9
$ANGBASE
 50
0.0
  9
$ANGDIR
 70
     0
  9
$PDMODE
 70
     0
  9
$PDSIZE
 40
0.0
  9
$PLINEWID
 40
0.0
  9
$SPLFRAME
 70
     0
  9
$SPLINETYPE
 70
     6
  9
$SPLINESEGS
 70
     8
  9
$HANDSEED
  5
8F3
  9
$SURFTAB1
 70
     6
  9
$SURFTAB2
 70
     6
  9
$SURFTYPE
 70
     6
  9
$SURFU
 70
     6
  9
$SURFV
 70
     6
  9
$UCSBASE
  2

  9
$UCSNAME
  2

  9
$UCSORG
 10
0.0
 20
0.0
 30
0.0
  9
$UCSXDIR
 10
1.0
 20
0.0
 30
0.0
  9
$UCSYDIR
 10
0.0
 20
1.0
 30
0.0
  9
$UCSORTHOREF
  2

  9
$UCSORTHOVIEW
 70
     0
  9
$UCSORGTOP
 10
0.0
 20
0.0
 30
0.0
  9
$UCSORGBOTTOM
 10
0.0
 20
0.0
 30
0.0
  9
$UCSORGLEFT
 10
0.0
 20
0.0
 30
0.0
  9
$UCSORGRIGHT
 10
0.0
 20
0.0
 30
0.0
  9
$UCSORGFRONT
 10
0.0
 20
0.0
 30
0.0
  9
$UCSORGBACK
 10
0.0
 20
0.0
 30
0.0
  9
$PUCSBASE
  2

  9
$PUCSNAME
  2

  9
$PUCSORG
 10
0.0
 20
0.0
 30
0.0
  9
$PUCSXDIR
 10
1.0
 20
0.0
 30
0.0
  9
$PUCSYDIR
 10
0.0
 20
1.0
 30
0.0
  9
$PUCSORTHOREF
  2

  9
$PUCSORTHOVIEW
 70
     0
  9
$PUCSORGTOP
 10
0.0
 20
0.0
 30
0.0
  9
$PUCSORGBOTTOM
 10
0.0
 20
0.0
 30
0.0
  9
$PUCSORGLEFT
 10
0.0
 20
0.0
 30
0.0
  9
$PUCSORGRIGHT
 10
0.0
 20
0.0
 30
0.0
  9
$PUCSORGFRONT
 10
0.0
 20
0.0
 30
0.0
  9
$PUCSORGBACK
 10
0.0
 20
0.0
 30
0.0
  9
$USERI1
 70
     0
  9
$USERI2
 70
     0
  9
$USERI3
 70
     0
  9
$USERI4
 70
     0
  9
$USERI5
 70
     0
  9
$USERR1
 40
0.0
  9
$USERR2
 40
0.0
  9
$USERR3
 40
0.0
  9
$USERR4
 40
0.0
  9
$USERR5
 40
0.0
  9
$WORLDVIEW
 70
     1
  9
$SHADEDGE
 70
     3
  9
$SHADEDIF
 70
    70
  9
$TILEMODE
 70
     1
  9
$MAXACTVP
 70
    64
  9
$PINSBASE
 10
0.0
 20
0.0
 30
0.0
  9
$PLIMCHECK
 70
     0
  9
$PEXTMIN
 10
0.0
 20
0.0
 30
0.0
  9
$PEXTMAX
 10
0.0
 20
0.0
 30
0.0
  9
$PLIMMIN
 10
0.0
 20
0.0
  9
$PLIMMAX
 10
12.0
 20
9.0
  9
$UNITMODE
 70
     0
  9
$VISRETAIN
 70
     1
  9
$PLINEGEN
 70
     0
  9
$PSLTSCALE
 70
     1
  9
$TREEDEPTH
 70
  3020
  9
$CMLSTYLE
  2
Standard
  9
$CMLJUST
 70
     0
  9
$CMLSCALE
 40
1.0
  9
$PROXYGRAPHICS
 70
     1
  9
$MEASUREMENT
 70
     0
  9
$CELWEIGHT
370
    -1
  9
$ENDCAPS
280
     0
  9
$JOINSTYLE
280
     0
  9
$LWDISPLAY
290
     0
  9
$INSUNITS
 70
     1
  9
$HYPERLINKBASE
  1

  9
$STYLESHEET
  1
A234 MONO.CTB
  9
$XEDIT
290
     1
  9
$CEPSNTYPE
380
     0
  9
$PSTYLEMODE
290
     1
  9
$FINGERPRINTGUID
  2
{6C81DC81-A6A3-44C6-B352-E8E681769A45}
  9
$VERSIONGUID
  2
{B14843FC-2BCC-48F8-8180-6794393BD4E5}
  9
$EXTNAMES
290
     1
  9
$PSVPSCALE
 40
0.0
  9
$OLESTARTUP
290
     0
  0
ENDSEC
  0
SECTION
  2
CLASSES
  0
CLASS
  1
ACDBDICTIONARYWDFLT
  2
AcDbDictionaryWithDefault
  3
ObjectDBX Classes
 90
        0
280
     0
281
     0
  0
CLASS
  1
DICTIONARYVAR
  2
AcDbDictionaryVar
  3
ObjectDBX Classes
 90
        0
280
     0
281
     0
  0
CLASS
  1
TABLESTYLE
  2
AcDbTableStyle
  3
ObjectDBX Classes
 90
     4095
280
     0
281
     0
  0
CLASS
  1
MATERIAL
  2
AcDbMaterial
  3
ObjectDBX Classes
 90
     1153
280
     0
281
     0
  0
CLASS
  1
VISUALSTYLE
  2
AcDbVisualStyle
  3
ObjectDBX Classes
 90
     4095
280
     0
281
     0
  0
CLASS
  1
SCALE
  2
AcDbScale
  3
ObjectDBX Classes
 90
     1153
280
     0
281
     0
  0
CLASS
  1
MLEADERSTYLE
  2
AcDbMLeaderStyle
  3
ACDB_MLEADERSTYLE_CLASS
 90
     4095
280
     0
281
     0
  0
CLASS
  1
CELLSTYLEMAP
  2
AcDbCellStyleMap
  3
ObjectDBX Classes
 90
     1152
280
     0
281
     0
  0
CLASS
  1
EXACXREFPANELOBJECT
  2
ExAcXREFPanelObject
  3
EXAC_ESW
 90
     1025
280
     0
281
     0
  0
CLASS
  1
NPOCOLLECTION
  2
AcDbImpNonPersistentObjectsCollection
  3
ObjectDBX Classes
 90
     1153
280
     0
281
     0
  0
CLASS
  1
LAYER_INDEX
  2
AcDbLayerIndex
  3
ObjectDBX Classes
 90
    32768
280
     0
281
     0
  0
CLASS
  1
SPATIAL_INDEX
  2
AcDbSpatialIndex
  3
ObjectDBX Classes
 90
    32768
280
     0
281
     0
  0
CLASS
  1
IDBUFFER
  2
AcDbIdBuffer
  3
ObjectDBX Classes
 90
    32768
280
     0
281
     0
  0
CLASS
  1
SORTENTSTABLE
  2
AcDbSortentsTable
  3
ObjectDBX Classes
 90
        0
280
     0
281
     0
  0
CLASS
  1
ACDBSECTIONVIEWSTYLE
  2
AcDbSectionViewStyle
  3
ObjectDBX Classes
 90
     1025
280
     0
281
     0
  0
CLASS
  1
ACDBDETAILVIEWSTYLE
  2
AcDbDetailViewStyle
  3
ObjectDBX Classes
 90
     1025
280
     0
281
     0
  0
CLASS
  1
ACDBPLACEHOLDER
  2
AcDbPlaceHolder
  3
ObjectDBX Classes
 90
        0
280
     0
281
     0
  0
CLASS
  1
LAYOUT
  2
AcDbLayout
  3
ObjectDBX Classes
 90
        0
280
     0
281
     0
  0
ENDSEC
  0
SECTION
  2
TABLES
  0
TABLE
  2
VPORT
  5
8
330
0
100
AcDbSymbolTable
 70
     1
  0
VPORT
  5
94
330
8
100
AcDbSymbolTableRecord
100
AcDbViewportTableRecord
  2
*Active
 70
     0
 10
0.0
 20
0.0
 11
1.0
 21
1.0
 12
30.26846406048028
 22
80.52180464410232
 13
0.0
 23
0.0
 14
0.5
 24
0.5
 15
0.5
 25
0.5
 16
0.0
 26
0.0
 36
1.0
 17
0.0
 27
0.0
 37
0.0
 40
161.8816506201467
 41
1.868055555555555
 42
50.0
 43
0.0
 44
0.0
 50
0.0
 51
0.0
 71
     0
 72
  1000
 73
     1
 74
     3
 75
     0
 76
     0
 77
     0
 78
     0
281
     0
 65
     1
110
0.0
120
0.0
130
0.0
111
1.0
121
0.0
131
0.0
112
0.0
122
1.0
132
0.0
 79
     0
146
0.0
1001
ACAD_NAV_VCDISPLAY
1070
     3
  0
ENDTAB
  0
TABLE
  2
LTYPE
  5
5
330
0
100
AcDbSymbolTable
 70
     1
  0
LTYPE
  5
14
330
5
100
AcDbSymbolTableRecord
100
AcDbLinetypeTableRecord
  2
ByBlock
 70
     0
  3

 72
    65
 73
     0
 40
0.0
  0
LTYPE
  5
15
330
5
100
AcDbSymbolTableRecord
100
AcDbLinetypeTableRecord
  2
ByLayer
 70
     0
  3

 72
    65
 73
     0
 40
0.0
  0
LTYPE
  5
16
330
5
100
AcDbSymbolTableRecord
100
AcDbLinetypeTableRecord
  2
Continuous
 70
     0
  3
Solid line
 72
    65
 73
     0
 40
0.0
  0
ENDTAB
  0
TABLE
  2
LAYER
  5
2
102
{ACAD_XDICTIONARY
360
17A
102
}
330
0
100
AcDbSymbolTable
 70
     2
  0
LAYER
  5
10
102
{ACAD_XDICTIONARY
360
E6
102
}
330
2
100
AcDbSymbolTableRecord
100
AcDbLayerTableRecord
  2
0
 70
     0
 62
     7
  6
Continuous
370
    -3
390
F
  0
LAYER
  5
220
330
2
100
AcDbSymbolTableRecord
100
AcDbLayerTableRecord
  2
RONDO
 70
     0
 62
    20
  6
Continuous
370
    -3
390
F
1001
AcAecLayerStandard
1000

1000

1001
AcCmTransparency
1071
        0
  0
ENDTAB
  0
TABLE
  2
STYLE
  5
3
330
0
100
AcDbSymbolTable
 70
     2
  0
STYLE
  5
11
330
3
100
AcDbSymbolTableRecord
100
AcDbTextStyleTableRecord
  2
Standard
 70
     0
 40
0.0
 41
1.0
 50
0.0
 71
     0
 42
0.2
  3
ARIAL.TTF
  4

1001
ACAD
1000
Arial
1071
       34
  0
ENDTAB
  0
TABLE
  2
VIEW
  5
6
330
0
100
AcDbSymbolTable
 70
     0
  0
ENDTAB
  0
TABLE
  2
UCS
  5
7
330
0
100
AcDbSymbolTable
 70
     0
  0
ENDTAB
  0
TABLE
  2
APPID
  5
9
330
0
100
AcDbSymbolTable
 70
    13
  0
APPID
  5
12
330
9
100
AcDbSymbolTableRecord
100
AcDbRegAppTableRecord
  2
ACAD
 70
     0
  0
APPID
  5
DD
330
9
100
AcDbSymbolTableRecord
100
AcDbRegAppTableRecord
  2
AcadAnnoPO
 70
     0
  0
APPID
  5
DE
330
9
100
AcDbSymbolTableRecord
100
AcDbRegAppTableRecord
  2
AcadAnnotative
 70
     0
  0
APPID
  5
DF
330
9
100
AcDbSymbolTableRecord
100
AcDbRegAppTableRecord
  2
ACAD_DSTYLE_DIMJAG
 70
     0
  0
APPID
  5
E0
330
9
100
AcDbSymbolTableRecord
100
AcDbRegAppTableRecord
  2
ACAD_DSTYLE_DIMTALN
 70
     0
  0
APPID
  5
107
330
9
100
AcDbSymbolTableRecord
100
AcDbRegAppTableRecord
  2
ACAD_MLEADERVER
 70
     0
  0
APPID
  5
176
330
9
100
AcDbSymbolTableRecord
100
AcDbRegAppTableRecord
  2
ACAD_PSEXT
 70
     0
  0
APPID
  5
177
330
9
100
AcDbSymbolTableRecord
100
AcDbRegAppTableRecord
  2
ACAD_DSTYLE_DIMJOGGED_JOGANGLE_SYMBOL
 70
     0
  0
APPID
  5
1BE
330
9
100
AcDbSymbolTableRecord
100
AcDbRegAppTableRecord
  2
ACAD_EXEMPT_FROM_CAD_STANDARDS
 70
     0
  0
APPID
  5
221
330
9
100
AcDbSymbolTableRecord
100
AcDbRegAppTableRecord
  2
AcAecLayerStandard
 70
     0
  0
APPID
  5
222
330
9
100
AcDbSymbolTableRecord
100
AcDbRegAppTableRecord
  2
AcCmTransparency
 70
     0
  0
APPID
  5
223
330
9
100
AcDbSymbolTableRecord
100
AcDbRegAppTableRecord
  2
ACAD_NAV_VCDISPLAY
 70
     0
  0
APPID
  5
224
330
9
100
AcDbSymbolTableRecord
100
AcDbRegAppTableRecord
  2
AcDbDynamicBlockGUID
 70
     0
  0
ENDTAB
  0
TABLE
  2
DIMSTYLE
  5
A
330
0
100
AcDbSymbolTable
 70
     1
100
AcDbDimStyleTable
 71
     1
340
27
  0
DIMSTYLE
105
27
330
A
100
AcDbSymbolTableRecord
100
AcDbDimStyleTableRecord
  2
Standard
 70
     0
340
11
  0
ENDTAB
  0
TABLE
  2
BLOCK_RECORD
  5
1
330
0
100
AcDbSymbolTable
 70
     6
  0
BLOCK_RECORD
  5
1F
102
{ACAD_XDICTIONARY
360
15D
102
}
330
1
100
AcDbSymbolTableRecord
100
AcDbBlockTableRecord
  2
*Model_Space
340
22
  0
BLOCK_RECORD
  5
58
330
1
100
AcDbSymbolTableRecord
100
AcDbBlockTableRecord
  2
*Paper_Space
340
59
  0
BLOCK_RECORD
  5
5D
330
1
100
AcDbSymbolTableRecord
100
AcDbBlockTableRecord
  2
*Paper_Space0
340
5E
  0
BLOCK_RECORD
  5
6A3
330
1
100
AcDbSymbolTableRecord
100
AcDbBlockTableRecord
  2
RONDO_356-1
340
0
310
28000000200000002000000001002000000000000010000001000000010000000000000000000000302821FF302821FF302821FF302821FF302821FF302821FF302821FF302821FF302821FF302821FF302821FF302821FF302821FF302821FF302821FF302821FF302821FF302821FF302821FF302821FF302821FF302821
310
FF302821FF302821FF302821FF302821FF302821FF302821FF302821FF302821FF302821FF302821FF302821FF302821FF302821FF302821FF302821FF302821FF302821FF302821FF302821FF302821FF302821FF003FFFFF003FFFFF302821FF302821FF302821FF302821FF302821FF302821FF003FFFFF003FFFFF3028
310
21FF302821FF302821FF302821FF302821FF302821FF302821FF302821FF302821FF302821FF302821FF302821FF302821FF302821FF302821FF302821FF302821FF302821FF302821FF302821FF302821FF302821FF003FFFFF003FFFFF003FFFFF003FFFFF003FFFFF003FFFFF003FFFFF003FFFFF003FFFFF003FFFFF30
310
2821FF302821FF302821FF302821FF302821FF302821FF302821FF302821FF302821FF302821FF302821FF302821FF302821FF302821FF302821FF302821FF302821FF302821FF302821FF302821FF302821FF302821FF003FFFFF003FFFFF003FFFFF003FFFFF003FFFFF003FFFFF003FFFFF003FFFFF003FFFFF003FFFFF
310
302821FF302821FF302821FF302821FF302821FF302821FF302821FF302821FF302821FF302821FF302821FF302821FF302821FF302821FF302821FF302821FF302821FF302821FF302821FF302821FF302821FF302821FF003FFFFF003FFFFF003FFFFF302821FF003FFFFF003FFFFF302821FF003FFFFF003FFFFF003FFF
310
FF302821FF302821FF302821FF302821FF302821FF302821FF302821FF302821FF302821FF302821FF302821FF302821FF302821FF302821FF302821FF302821FF302821FF302821FF302821FF302821FF302821FF302821FF003FFFFF003FFFFF003FFFFF302821FF003FFFFF003FFFFF302821FF003FFFFF003FFFFF003F
310
FFFF302821FF302821FF302821FF302821FF302821FF302821FF302821FF302821FF302821FF302821FF302821FF302821FF302821FF302821FF302821FF302821FF302821FF302821FF302821FF302821FF302821FF302821FF003FFFFF003FFFFF003FFFFF003FFFFF003FFFFF003FFFFF003FFFFF003FFFFF003FFFFF00
310
3FFFFF302821FF302821FF302821FF302821FF302821FF302821FF302821FF302821FF302821FF302821FF302821FF302821FF302821FF302821FF302821FF302821FF302821FF302821FF302821FF302821FF302821FF302821FF003FFFFF003FFFFF003FFFFF003FFFFF003FFFFF003FFFFF003FFFFF003FFFFF003FFFFF
310
003FFFFF302821FF302821FF302821FF302821FF302821FF302821FF302821FF302821FF302821FF302821FF302821FF302821FF302821FF302821FF302821FF302821FF302821FF302821FF302821FF302821FF302821FF302821FF003FFFFF003FFFFF003FFFFF302821FF302821FF302821FF302821FF003FFFFF003FFF
310
FF003FFFFF302821FF302821FF302821FF302821FF302821FF302821FF302821FF302821FF302821FF302821FF302821FF302821FF302821FF302821FF302821FF302821FF302821FF302821FF302821FF302821FF302821FF302821FF003FFFFF003FFFFF003FFFFF003FFFFF003FFFFF003FFFFF003FFFFF003FFFFF003F
310
FFFF003FFFFF302821FF302821FF302821FF302821FF302821FF302821FF302821FF302821FF302821FF302821FF302821FF302821FF302821FF302821FF302821FF302821FF302821FF302821FF302821FF302821FF302821FF302821FF003FFFFF003FFFFF302821FF302821FF302821FF302821FF302821FF302821FF00
310
3FFFFF003FFFFF302821FF302821FF302821FF302821FF302821FF302821FF302821FF302821FF302821FF302821FF302821FF302821FF302821FF302821FF302821FF302821FF302821FF302821FF302821FF302821FF302821FF302821FF003FFFFF003FFFFF302821FF302821FF302821FF302821FF302821FF302821FF
310
003FFFFF003FFFFF302821FF302821FF302821FF302821FF302821FF302821FF302821FF302821FF302821FF302821FF302821FF302821FF302821FF302821FF302821FF302821FF302821FF302821FF302821FF302821FF302821FF302821FF003FFFFF003FFFFF003FFFFF003FFFFF003FFFFF003FFFFF003FFFFF003FFF
310
FF003FFFFF003FFFFF302821FF302821FF302821FF302821FF302821FF302821FF302821FF302821FF302821FF302821FF302821FF302821FF302821FF302821FF302821FF302821FF302821FF302821FF302821FF302821FF302821FF302821FF003FFFFF003FFFFF003FFFFF302821FF302821FF302821FF302821FF003F
310
FFFF003FFFFF003FFFFF302821FF302821FF302821FF302821FF302821FF302821FF302821FF302821FF302821FF302821FF302821FF302821FF302821FF302821FF302821FF302821FF302821FF302821FF302821FF302821FF302821FF302821FF003FFFFF003FFFFF003FFFFF302821FF302821FF302821FF302821FF00
310
3FFFFF003FFFFF003FFFFF302821FF302821FF302821FF302821FF302821FF302821FF302821FF302821FF302821FF302821FF302821FF302821FF302821FF302821FF302821FF302821FF302821FF302821FF302821FF302821FF302821FF302821FF003FFFFF302821FF003FFFFF302821FF302821FF302821FF302821FF
310
003FFFFF302821FF003FFFFF302821FF302821FF302821FF302821FF302821FF302821FF302821FF302821FF302821FF302821FF302821FF302821FF302821FF302821FF302821FF302821FF302821FF302821FF302821FF302821FF302821FF302821FF003FFFFF302821FF003FFFFF003FFFFF003FFFFF003FFFFF003FFF
310
FF003FFFFF302821FF003FFFFF302821FF302821FF302821FF302821FF302821FF302821FF302821FF302821FF302821FF302821FF302821FF302821FF302821FF302821FF302821FF302821FF302821FF302821FF302821FF302821FF302821FF302821FF003FFFFF302821FF003FFFFF003FFFFF003FFFFF003FFFFF003F
310
FFFF003FFFFF302821FF003FFFFF302821FF302821FF302821FF302821FF302821FF302821FF302821FF302821FF302821FF302821FF302821FF302821FF302821FF302821FF302821FF302821FF302821FF302821FF302821FF302821FF302821FF302821FF003FFFFF302821FF003FFFFF003FFFFF003FFFFF003FFFFF00
310
3FFFFF003FFFFF302821FF003FFFFF302821FF302821FF302821FF302821FF302821FF302821FF302821FF302821FF302821FF302821FF302821FF302821FF302821FF302821FF302821FF302821FF302821FF302821FF302821FF302821FF302821FF302821FF003FFFFF302821FF003FFFFF003FFFFF003FFFFF003FFFFF
310
003FFFFF003FFFFF302821FF003FFFFF302821FF302821FF302821FF302821FF302821FF302821FF302821FF302821FF302821FF302821FF302821FF302821FF302821FF302821FF302821FF302821FF302821FF302821FF302821FF302821FF302821FF302821FF003FFFFF302821FF003FFFFF003FFFFF302821FF302821
310
FF003FFFFF003FFFFF302821FF003FFFFF302821FF302821FF302821FF302821FF302821FF302821FF302821FF302821FF302821FF302821FF302821FF302821FF302821FF302821FF302821FF302821FF302821FF302821FF302821FF302821FF302821FF302821FF003FFFFF302821FF003FFFFF003FFFFF003FFFFF003F
310
FFFF003FFFFF003FFFFF302821FF003FFFFF302821FF302821FF302821FF302821FF302821FF302821FF302821FF302821FF302821FF302821FF302821FF302821FF302821FF302821FF302821FF302821FF302821FF302821FF302821FF302821FF302821FF302821FF302821FF003FFFFF302821FF003FFFFF003FFFFF00
310
3FFFFF003FFFFF302821FF302821FF003FFFFF302821FF302821FF302821FF302821FF302821FF302821FF302821FF302821FF302821FF302821FF302821FF302821FF302821FF302821FF302821FF302821FF302821FF302821FF302821FF302821FF302821FF302821FF302821FF003FFFFF302821FF003FFFFF003FFFFF
310
003FFFFF003FFFFF302821FF003FFFFF302821FF302821FF302821FF302821FF302821FF302821FF302821FF302821FF302821FF302821FF302821FF302821FF302821FF302821FF302821FF302821FF302821FF302821FF302821FF302821FF302821FF302821FF302821FF302821FF302821FF003FFFFF003FFFFF003FFF
310
FF003FFFFF003FFFFF302821FF003FFFFF302821FF302821FF302821FF302821FF302821FF302821FF302821FF302821FF302821FF302821FF302821FF302821FF302821FF302821FF302821FF302821FF302821FF302821FF302821FF302821FF302821FF302821FF302821FF302821FF302821FF003FFFFF003FFFFF003F
310
FFFF003FFFFF003FFFFF003FFFFF302821FF302821FF302821FF302821FF302821FF302821FF302821FF302821FF302821FF302821FF302821FF302821FF302821FF302821FF302821FF302821FF302821FF302821FF302821FF302821FF302821FF302821FF302821FF302821FF302821FF302821FF003FFFFF003FFFFF00
310
3FFFFF003FFFFF003FFFFF003FFFFF302821FF302821FF302821FF302821FF302821FF302821FF302821FF302821FF302821FF302821FF302821FF302821FF302821FF302821FF302821FF302821FF302821FF302821FF302821FF302821FF302821FF302821FF302821FF302821FF302821FF302821FF003FFFFF302821FF
310
003FFFFF003FFFFF302821FF003FFFFF302821FF302821FF302821FF302821FF302821FF302821FF302821FF302821FF302821FF302821FF302821FF302821FF302821FF302821FF302821FF302821FF302821FF302821FF302821FF302821FF302821FF302821FF302821FF302821FF302821FF302821FF003FFFFF302821
310
FF003FFFFF003FFFFF302821FF003FFFFF302821FF302821FF302821FF302821FF302821FF302821FF302821FF302821FF302821FF302821FF302821FF302821FF302821FF302821FF302821FF302821FF302821FF302821FF302821FF302821FF302821FF302821FF302821FF302821FF302821FF302821FF003FFFFF003F
310
FFFF003FFFFF003FFFFF003FFFFF003FFFFF302821FF302821FF302821FF302821FF302821FF302821FF302821FF302821FF302821FF302821FF302821FF302821FF302821FF302821FF302821FF302821FF302821FF302821FF302821FF302821FF302821FF302821FF302821FF302821FF302821FF302821FF003FFFFF00
310
3FFFFF003FFFFF003FFFFF003FFFFF003FFFFF302821FF302821FF302821FF302821FF302821FF302821FF302821FF302821FF302821FF302821FF302821FF302821FF302821FF302821FF302821FF302821FF302821FF302821FF302821FF302821FF302821FF302821FF302821FF302821FF302821FF302821FF302821FF
310
302821FF302821FF302821FF302821FF302821FF302821FF302821FF302821FF302821FF302821FF302821FF302821FF302821FF302821FF302821FF302821FF302821FF302821FF
102
{BLKREFS
331
7F4
102
}
1001
ACAD
1000
DesignCenter Data
1002
{
1070
     1
1070
     1
1002
}
  0
BLOCK_RECORD
  5
7F5
330
1
100
AcDbSymbolTableRecord
100
AcDbBlockTableRecord
  2
RONDO_356-2
340
0
310
28000000200000002000000001002000000000000010000001000000010000000000000000000000302821FF302821FF302821FF302821FF302821FF302821FF302821FF302821FF302821FF302821FF302821FF302821FF302821FF302821FF302821FF302821FF302821FF302821FF302821FF302821FF302821FF302821
310
FF302821FF302821FF302821FF302821FF302821FF302821FF302821FF302821FF302821FF302821FF302821FF302821FF302821FF302821FF302821FF302821FF302821FF302821FF302821FF302821FF302821FF302821FF003FFFFF003FFFFF302821FF302821FF302821FF302821FF302821FF302821FF302821FF3028
310
21FF302821FF302821FF302821FF302821FF302821FF302821FF302821FF302821FF302821FF302821FF302821FF302821FF302821FF302821FF302821FF302821FF302821FF302821FF302821FF302821FF302821FF302821FF003FFFFF302821FF302821FF302821FF302821FF302821FF302821FF302821FF302821FF30
310
2821FF302821FF302821FF302821FF302821FF302821FF302821FF302821FF302821FF302821FF302821FF302821FF302821FF302821FF302821FF302821FF302821FF302821FF302821FF302821FF302821FF302821FF302821FF003FFFFF302821FF302821FF302821FF302821FF302821FF302821FF302821FF302821FF
310
302821FF302821FF302821FF302821FF302821FF302821FF302821FF302821FF302821FF302821FF302821FF302821FF302821FF302821FF302821FF302821FF302821FF302821FF302821FF302821FF302821FF302821FF302821FF003FFFFF302821FF302821FF302821FF302821FF302821FF302821FF302821FF302821
310
FF302821FF302821FF302821FF302821FF302821FF302821FF302821FF302821FF302821FF302821FF302821FF302821FF302821FF302821FF302821FF302821FF302821FF302821FF302821FF302821FF302821FF302821FF302821FF003FFFFF302821FF302821FF302821FF302821FF302821FF302821FF302821FF3028
310
21FF302821FF302821FF302821FF302821FF302821FF302821FF302821FF302821FF302821FF302821FF302821FF302821FF302821FF302821FF302821FF302821FF302821FF302821FF302821FF302821FF302821FF302821FF302821FF003FFFFF003FFFFF302821FF302821FF302821FF302821FF302821FF302821FF30
310
2821FF302821FF302821FF302821FF302821FF302821FF302821FF302821FF302821FF302821FF302821FF302821FF302821FF302821FF302821FF302821FF302821FF302821FF302821FF302821FF302821FF302821FF302821FF302821FF003FFFFF003FFFFF302821FF302821FF302821FF302821FF302821FF302821FF
310
302821FF302821FF302821FF302821FF302821FF302821FF302821FF302821FF302821FF302821FF302821FF302821FF302821FF302821FF302821FF302821FF302821FF302821FF302821FF302821FF302821FF302821FF302821FF302821FF003FFFFF003FFFFF302821FF302821FF302821FF302821FF302821FF302821
310
FF302821FF302821FF302821FF302821FF302821FF302821FF302821FF302821FF302821FF302821FF302821FF302821FF302821FF302821FF302821FF302821FF302821FF302821FF302821FF302821FF302821FF302821FF302821FF302821FF003FFFFF302821FF302821FF302821FF302821FF302821FF302821FF3028
310
21FF302821FF302821FF302821FF302821FF302821FF302821FF302821FF302821FF302821FF302821FF302821FF302821FF302821FF302821FF302821FF302821FF302821FF302821FF302821FF302821FF302821FF302821FF302821FF302821FF003FFFFF302821FF302821FF302821FF302821FF302821FF302821FF30
310
2821FF302821FF302821FF302821FF302821FF302821FF302821FF302821FF302821FF302821FF302821FF302821FF302821FF302821FF302821FF302821FF302821FF302821FF302821FF302821FF302821FF302821FF302821FF302821FF302821FF003FFFFF302821FF302821FF302821FF302821FF302821FF302821FF
310
302821FF302821FF302821FF302821FF302821FF302821FF302821FF302821FF302821FF302821FF302821FF302821FF302821FF302821FF302821FF302821FF302821FF302821FF302821FF302821FF302821FF302821FF302821FF302821FF302821FF003FFFFF302821FF302821FF302821FF302821FF302821FF302821
310
FF302821FF302821FF302821FF302821FF302821FF302821FF302821FF302821FF302821FF302821FF302821FF302821FF302821FF302821FF302821FF302821FF302821FF302821FF302821FF302821FF302821FF302821FF302821FF302821FF302821FF003FFFFF302821FF302821FF302821FF302821FF302821FF3028
310
21FF302821FF302821FF302821FF302821FF302821FF302821FF302821FF302821FF302821FF302821FF302821FF302821FF302821FF302821FF302821FF302821FF302821FF302821FF302821FF302821FF302821FF302821FF302821FF302821FF302821FF003FFFFF302821FF302821FF302821FF302821FF302821FF30
310
2821FF302821FF302821FF302821FF302821FF302821FF302821FF302821FF302821FF302821FF302821FF302821FF302821FF302821FF302821FF302821FF302821FF302821FF302821FF302821FF302821FF302821FF302821FF302821FF302821FF302821FF003FFFFF302821FF302821FF302821FF302821FF302821FF
310
302821FF302821FF302821FF302821FF302821FF302821FF302821FF302821FF302821FF302821FF302821FF302821FF302821FF302821FF302821FF302821FF302821FF302821FF302821FF302821FF302821FF302821FF302821FF302821FF302821FF302821FF003FFFFF302821FF302821FF302821FF302821FF302821
310
FF302821FF003FFFFF302821FF302821FF302821FF302821FF302821FF302821FF302821FF302821FF302821FF302821FF302821FF302821FF302821FF302821FF302821FF302821FF302821FF302821FF302821FF302821FF302821FF302821FF302821FF302821FF003FFFFF302821FF302821FF302821FF003FFFFF003F
310
FFFF003FFFFF003FFFFF302821FF302821FF302821FF302821FF302821FF302821FF302821FF302821FF302821FF302821FF302821FF302821FF302821FF302821FF302821FF302821FF302821FF302821FF302821FF302821FF302821FF302821FF302821FF302821FF003FFFFF302821FF003FFFFF003FFFFF003FFFFF30
310
2821FF302821FF302821FF302821FF302821FF302821FF302821FF302821FF302821FF302821FF302821FF302821FF302821FF302821FF302821FF302821FF302821FF302821FF302821FF302821FF302821FF302821FF302821FF302821FF302821FF302821FF302821FF003FFFFF003FFFFF003FFFFF302821FF302821FF
310
302821FF302821FF302821FF302821FF302821FF302821FF302821FF302821FF302821FF302821FF302821FF302821FF302821FF302821FF302821FF302821FF302821FF302821FF302821FF302821FF302821FF302821FF302821FF302821FF302821FF302821FF302821FF003FFFFF003FFFFF302821FF302821FF302821
310
FF302821FF302821FF302821FF302821FF302821FF302821FF302821FF302821FF302821FF302821FF302821FF302821FF302821FF302821FF302821FF302821FF302821FF302821FF302821FF302821FF302821FF302821FF302821FF302821FF302821FF302821FF302821FF003FFFFF302821FF302821FF302821FF3028
310
21FF302821FF302821FF302821FF302821FF302821FF302821FF302821FF302821FF302821FF302821FF302821FF302821FF302821FF302821FF302821FF302821FF302821FF302821FF302821FF302821FF302821FF302821FF302821FF302821FF302821FF302821FF302821FF003FFFFF302821FF302821FF302821FF30
310
2821FF302821FF302821FF302821FF302821FF302821FF302821FF302821FF302821FF302821FF302821FF302821FF302821FF302821FF302821FF302821FF302821FF302821FF302821FF302821FF302821FF302821FF302821FF302821FF302821FF302821FF302821FF302821FF003FFFFF302821FF302821FF302821FF
310
302821FF302821FF302821FF302821FF302821FF302821FF302821FF302821FF302821FF302821FF302821FF302821FF302821FF302821FF302821FF302821FF302821FF302821FF302821FF302821FF302821FF302821FF302821FF302821FF302821FF302821FF302821FF302821FF003FFFFF302821FF302821FF302821
310
FF302821FF302821FF302821FF302821FF302821FF302821FF302821FF302821FF302821FF302821FF302821FF302821FF302821FF302821FF302821FF302821FF302821FF302821FF302821FF302821FF302821FF302821FF302821FF302821FF302821FF302821FF302821FF302821FF003FFFFF302821FF302821FF3028
310
21FF302821FF302821FF302821FF302821FF302821FF302821FF302821FF302821FF302821FF302821FF302821FF302821FF302821FF302821FF302821FF302821FF302821FF302821FF302821FF302821FF302821FF302821FF302821FF302821FF302821FF302821FF302821FF302821FF003FFFFF003FFFFF302821FF30
310
2821FF302821FF302821FF302821FF302821FF302821FF302821FF302821FF302821FF302821FF302821FF302821FF302821FF302821FF302821FF302821FF302821FF302821FF302821FF302821FF302821FF302821FF302821FF302821FF302821FF302821FF302821FF302821FF302821FF302821FF302821FF003FFFFF
310
003FFFFF302821FF302821FF302821FF302821FF302821FF302821FF302821FF302821FF302821FF302821FF302821FF302821FF302821FF302821FF302821FF302821FF302821FF302821FF302821FF302821FF302821FF302821FF302821FF302821FF302821FF302821FF302821FF302821FF302821FF302821FF302821
310
FF302821FF003FFFFF003FFFFF302821FF302821FF302821FF302821FF302821FF302821FF302821FF302821FF302821FF302821FF302821FF302821FF302821FF302821FF302821FF302821FF302821FF302821FF302821FF302821FF302821FF302821FF302821FF302821FF302821FF302821FF302821FF302821FF3028
310
21FF302821FF302821FF302821FF003FFFFF003FFFFF302821FF302821FF302821FF302821FF302821FF302821FF302821FF302821FF302821FF302821FF302821FF302821FF302821FF302821FF302821FF302821FF302821FF302821FF302821FF302821FF302821FF302821FF302821FF302821FF302821FF302821FF30
310
2821FF302821FF302821FF302821FF302821FF003FFFFF302821FF302821FF302821FF302821FF302821FF302821FF302821FF302821FF302821FF302821FF302821FF302821FF302821FF302821FF302821FF302821FF302821FF302821FF302821FF302821FF302821FF302821FF302821FF302821FF302821FF302821FF
310
302821FF302821FF302821FF302821FF302821FF302821FF302821FF302821FF302821FF302821FF302821FF302821FF302821FF302821FF302821FF302821FF302821FF302821FF
102
{BLKREFS
331
844
102
}
1001
ACAD
1000
DesignCenter Data
1002
{
1070
     1
1070
     1
1002
}
  0
BLOCK_RECORD
  5
845
330
1
100
AcDbSymbolTableRecord
100
AcDbBlockTableRecord
  2
RONDO_356-3
340
0
310
28000000200000002000000001002000000000000010000001000000010000000000000000000000302821FF302821FF302821FF302821FF302821FF302821FF302821FF302821FF302821FF302821FF302821FF302821FF302821FF302821FF302821FF302821FF302821FF302821FF302821FF302821FF302821FF302821
310
FF302821FF302821FF302821FF302821FF302821FF302821FF302821FF302821FF302821FF302821FF302821FF302821FF302821FF302821FF302821FF302821FF003FFFFF003FFFFF302821FF302821FF302821FF302821FF302821FF302821FF302821FF302821FF302821FF302821FF302821FF302821FF302821FF3028
310
21FF302821FF302821FF302821FF302821FF302821FF302821FF302821FF302821FF302821FF302821FF302821FF302821FF302821FF302821FF302821FF302821FF003FFFFF003FFFFF302821FF302821FF302821FF302821FF302821FF302821FF302821FF302821FF302821FF302821FF302821FF302821FF302821FF30
310
2821FF302821FF302821FF302821FF302821FF302821FF302821FF302821FF302821FF302821FF302821FF302821FF302821FF302821FF302821FF302821FF003FFFFF003FFFFF003FFFFF302821FF302821FF302821FF302821FF302821FF302821FF302821FF302821FF302821FF302821FF302821FF302821FF302821FF
310
302821FF302821FF302821FF302821FF302821FF302821FF302821FF302821FF302821FF302821FF302821FF302821FF302821FF302821FF302821FF302821FF003FFFFF003FFFFF003FFFFF302821FF302821FF302821FF302821FF302821FF302821FF302821FF302821FF302821FF302821FF302821FF302821FF302821
310
FF302821FF302821FF302821FF302821FF302821FF302821FF302821FF302821FF302821FF302821FF302821FF302821FF302821FF302821FF302821FF302821FF003FFFFF003FFFFF003FFFFF302821FF302821FF302821FF302821FF302821FF302821FF302821FF302821FF302821FF302821FF302821FF302821FF3028
310
21FF302821FF302821FF302821FF302821FF302821FF302821FF302821FF302821FF302821FF302821FF302821FF302821FF302821FF302821FF302821FF302821FF003FFFFF003FFFFF003FFFFF302821FF302821FF302821FF302821FF302821FF302821FF302821FF302821FF302821FF302821FF302821FF302821FF30
310
2821FF302821FF302821FF302821FF302821FF302821FF302821FF302821FF302821FF302821FF302821FF302821FF302821FF302821FF302821FF302821FF302821FF302821FF003FFFFF003FFFFF302821FF302821FF302821FF302821FF302821FF302821FF302821FF302821FF302821FF302821FF302821FF302821FF
310
302821FF302821FF302821FF302821FF302821FF302821FF302821FF302821FF302821FF302821FF302821FF302821FF302821FF302821FF302821FF302821FF302821FF302821FF003FFFFF003FFFFF302821FF302821FF302821FF302821FF302821FF302821FF302821FF302821FF302821FF302821FF302821FF302821
310
FF302821FF302821FF302821FF302821FF302821FF302821FF302821FF302821FF302821FF302821FF302821FF302821FF302821FF302821FF302821FF302821FF302821FF302821FF003FFFFF003FFFFF003FFFFF003FFFFF003FFFFF003FFFFF003FFFFF003FFFFF003FFFFF003FFFFF003FFFFF003FFFFF003FFFFF003F
310
FFFF003FFFFF003FFFFF003FFFFF003FFFFF003FFFFF003FFFFF003FFFFF302821FF302821FF302821FF302821FF302821FF302821FF302821FF302821FF302821FF302821FF003FFFFF003FFFFF302821FF003FFFFF302821FF302821FF302821FF302821FF302821FF302821FF302821FF302821FF302821FF302821FF30
310
2821FF302821FF302821FF003FFFFF003FFFFF302821FF302821FF003FFFFF302821FF302821FF302821FF302821FF302821FF302821FF302821FF302821FF302821FF302821FF003FFFFF003FFFFF302821FF003FFFFF302821FF302821FF302821FF302821FF302821FF302821FF302821FF302821FF302821FF302821FF
310
302821FF302821FF302821FF003FFFFF003FFFFF302821FF302821FF003FFFFF302821FF302821FF302821FF302821FF302821FF302821FF302821FF302821FF302821FF302821FF003FFFFF003FFFFF302821FF003FFFFF302821FF302821FF302821FF302821FF302821FF302821FF302821FF302821FF302821FF302821
310
FF302821FF302821FF302821FF003FFFFF003FFFFF302821FF302821FF003FFFFF302821FF302821FF302821FF302821FF302821FF302821FF302821FF302821FF302821FF302821FF003FFFFF003FFFFF302821FF003FFFFF302821FF302821FF302821FF302821FF003FFFFF003FFFFF302821FF302821FF302821FF3028
310
21FF302821FF302821FF302821FF003FFFFF003FFFFF302821FF302821FF003FFFFF302821FF302821FF302821FF302821FF302821FF302821FF302821FF302821FF302821FF302821FF003FFFFF003FFFFF302821FF003FFFFF302821FF302821FF302821FF003FFFFF003FFFFF302821FF003FFFFF302821FF302821FF30
310
2821FF302821FF302821FF302821FF003FFFFF003FFFFF302821FF302821FF003FFFFF302821FF302821FF302821FF302821FF302821FF302821FF302821FF302821FF302821FF302821FF003FFFFF003FFFFF302821FF003FFFFF302821FF302821FF003FFFFF003FFFFF302821FF302821FF003FFFFF302821FF302821FF
310
302821FF302821FF302821FF302821FF003FFFFF003FFFFF302821FF302821FF003FFFFF302821FF302821FF302821FF302821FF302821FF302821FF302821FF302821FF302821FF302821FF003FFFFF003FFFFF302821FF003FFFFF302821FF302821FF003FFFFF003FFFFF302821FF302821FF003FFFFF302821FF302821
310
FF302821FF302821FF302821FF302821FF003FFFFF003FFFFF302821FF302821FF003FFFFF302821FF302821FF302821FF302821FF302821FF302821FF302821FF302821FF302821FF302821FF003FFFFF003FFFFF302821FF003FFFFF302821FF302821FF302821FF003FFFFF003FFFFF302821FF003FFFFF302821FF3028
310
21FF302821FF302821FF302821FF302821FF003FFFFF003FFFFF302821FF302821FF003FFFFF302821FF302821FF302821FF302821FF302821FF302821FF302821FF302821FF302821FF302821FF003FFFFF003FFFFF302821FF003FFFFF302821FF302821FF302821FF302821FF003FFFFF003FFFFF302821FF302821FF30
310
2821FF302821FF302821FF302821FF302821FF003FFFFF003FFFFF302821FF302821FF003FFFFF302821FF302821FF302821FF302821FF302821FF302821FF302821FF302821FF302821FF302821FF003FFFFF003FFFFF302821FF003FFFFF302821FF302821FF302821FF302821FF302821FF302821FF302821FF302821FF
310
302821FF302821FF302821FF302821FF302821FF003FFFFF003FFFFF302821FF302821FF003FFFFF302821FF302821FF302821FF302821FF302821FF302821FF302821FF302821FF302821FF302821FF003FFFFF003FFFFF302821FF003FFFFF302821FF302821FF302821FF302821FF302821FF302821FF302821FF302821
310
FF302821FF302821FF302821FF302821FF302821FF003FFFFF003FFFFF302821FF302821FF003FFFFF302821FF302821FF302821FF302821FF302821FF302821FF302821FF302821FF302821FF302821FF003FFFFF003FFFFF302821FF003FFFFF302821FF302821FF302821FF302821FF302821FF302821FF302821FF3028
310
21FF302821FF302821FF302821FF302821FF302821FF003FFFFF003FFFFF302821FF302821FF003FFFFF302821FF302821FF302821FF302821FF302821FF302821FF302821FF302821FF302821FF302821FF302821FF003FFFFF003FFFFF003FFFFF003FFFFF003FFFFF003FFFFF003FFFFF003FFFFF003FFFFF003FFFFF00
310
3FFFFF003FFFFF003FFFFF003FFFFF003FFFFF003FFFFF003FFFFF003FFFFF003FFFFF003FFFFF003FFFFF302821FF302821FF302821FF302821FF302821FF302821FF302821FF302821FF302821FF302821FF302821FF003FFFFF003FFFFF302821FF302821FF302821FF302821FF302821FF302821FF302821FF302821FF
310
302821FF302821FF302821FF302821FF302821FF302821FF302821FF302821FF302821FF302821FF302821FF302821FF302821FF302821FF302821FF302821FF302821FF302821FF302821FF302821FF302821FF302821FF003FFFFF003FFFFF302821FF302821FF302821FF302821FF302821FF302821FF302821FF302821
310
FF302821FF302821FF302821FF302821FF302821FF302821FF302821FF302821FF302821FF302821FF302821FF302821FF302821FF302821FF302821FF302821FF302821FF302821FF302821FF302821FF302821FF003FFFFF003FFFFF003FFFFF302821FF302821FF302821FF302821FF302821FF302821FF302821FF3028
310
21FF302821FF302821FF302821FF302821FF302821FF302821FF302821FF302821FF302821FF302821FF302821FF302821FF302821FF302821FF302821FF302821FF302821FF302821FF302821FF302821FF302821FF003FFFFF003FFFFF003FFFFF302821FF302821FF302821FF302821FF302821FF302821FF302821FF30
310
2821FF302821FF302821FF302821FF302821FF302821FF302821FF302821FF302821FF302821FF302821FF302821FF302821FF302821FF302821FF302821FF302821FF302821FF302821FF302821FF302821FF302821FF003FFFFF003FFFFF003FFFFF302821FF302821FF302821FF302821FF302821FF302821FF302821FF
310
302821FF302821FF302821FF302821FF302821FF302821FF302821FF302821FF302821FF302821FF302821FF302821FF302821FF302821FF302821FF302821FF302821FF302821FF302821FF302821FF302821FF302821FF003FFFFF003FFFFF003FFFFF302821FF302821FF302821FF302821FF302821FF302821FF302821
310
FF302821FF302821FF302821FF302821FF302821FF302821FF302821FF302821FF302821FF302821FF302821FF302821FF302821FF302821FF302821FF302821FF302821FF302821FF302821FF302821FF302821FF302821FF302821FF003FFFFF003FFFFF302821FF302821FF302821FF302821FF302821FF302821FF3028
310
21FF302821FF302821FF302821FF302821FF302821FF302821FF302821FF302821FF302821FF302821FF302821FF302821FF302821FF302821FF302821FF302821FF302821FF302821FF302821FF302821FF302821FF302821FF302821FF003FFFFF003FFFFF302821FF302821FF302821FF302821FF302821FF302821FF30
310
2821FF302821FF302821FF302821FF302821FF302821FF302821FF302821FF302821FF302821FF302821FF302821FF302821FF302821FF302821FF302821FF302821FF302821FF302821FF302821FF302821FF302821FF302821FF302821FF302821FF302821FF302821FF302821FF302821FF302821FF302821FF302821FF
310
302821FF302821FF302821FF302821FF302821FF302821FF302821FF302821FF302821FF302821FF302821FF302821FF302821FF302821FF302821FF302821FF302821FF302821FF
102
{BLKREFS
331
8A7
102
}
1001
ACAD
1000
DesignCenter Data
1002
{
1070
     1
1070
     1
1002
}
  0
ENDTAB
  0
ENDSEC
  0
SECTION
  2
BLOCKS
  0
BLOCK
  5
20
330
1F
100
AcDbEntity
  8
0
100
AcDbBlockBegin
  2
*Model_Space
 70
     0
 10
0.0
 20
0.0
 30
0.0
  3
*Model_Space
  1

  0
ENDBLK
  5
21
330
1F
100
AcDbEntity
  8
0
100
AcDbBlockEnd
  0
BLOCK
  5
5A
330
58
100
AcDbEntity
 67
     1
  8
0
100
AcDbBlockBegin
  2
*Paper_Space
 70
     0
 10
0.0
 20
0.0
 30
0.0
  3
*Paper_Space
  1

  0
ENDBLK
  5
5B
330
58
100
AcDbEntity
 67
     1
  8
0
100
AcDbBlockEnd
  0
BLOCK
  5
5F
330
5D
100
AcDbEntity
 67
     1
  8
0
100
AcDbBlockBegin
  2
*Paper_Space0
 70
     0
 10
0.0
 20
0.0
 30
0.0
  3
*Paper_Space0
  1

  0
ENDBLK
  5
60
330
5D
100
AcDbEntity
 67
     1
  8
0
100
AcDbBlockEnd
  0
BLOCK
  5
6A4
330
6A3
100
AcDbEntity
  8
0
100
AcDbBlockBegin
  2
RONDO_356-1
 70
     0
 10
0.0
 20
0.0
 30
0.0
  3
RONDO_356-1
  1

  0
LINE
  5
6A6
330
6A3
100
AcDbEntity
  8
RONDO
100
AcDbLine
 10
-1.526923653387797
 20
12.2807556104473
 30
0.0
 11
-0.0000000000005969
 21
6.882208083826341
 31
0.0
  0
LINE
  5
6A7
330
6A3
100
AcDbEntity
  8
RONDO
100
AcDbLine
 10
1.526923653387484
 20
12.2807556104473
 30
0.0
 11
-0.0000000000005969
 21
6.882208083826341
 31
0.0
  0
ELLIPSE
  5
6A8
330
6A3
100
AcDbEntity
  8
RONDO
100
AcDbEllipse
 10
-0.0000000000000568
 20
6.960932039800141
 30
0.0
 11
5.539610728240262
 21
-0.0000000000369937
 31
0.0
210
0.0
220
0.0
230
1.0
 40
0.999024973219649
 41
1.291543646482487
 42
1.850049007120677
  0
LINE
  5
6A9
330
6A3
100
AcDbEntity
  8
RONDO
100
AcDbLine
 10
-3.969710695091805
 20
78.40203225929736
 30
0.0
 11
-3.969710695091805
 21
78.80073567870605
 31
0.0
  0
LINE
  5
6AA
330
6A3
100
AcDbEntity
  8
RONDO
100
AcDbLine
 10
-1.324653863892677
 20
78.40203225929736
 30
0.0
 11
-3.969710695091805
 21
78.40203225929736
 31
0.0
  0
LINE
  5
6AB
330
6A3
100
AcDbEntity
  8
RONDO
100
AcDbLine
 10
-1.324653863892677
 20
77.39554923713152
 30
0.0
 11
-1.324653863892677
 21
78.40203225929736
 31
0.0
  0
LINE
  5
6AC
330
6A3
100
AcDbEntity
  8
RONDO
100
AcDbLine
 10
-0.9697105758825159
 20
77.39554923713152
 30
0.0
 11
-1.324653863892677
 21
77.39554923713152
 31
0.0
  0
LINE
  5
6AD
330
6A3
100
AcDbEntity
  8
RONDO
100
AcDbLine
 10
-0.9697105758825159
 20
79.80721870087191
 30
0.0
 11
-0.9697105758825159
 21
77.39554923713152
 31
0.0
  0
LINE
  5
6AE
330
6A3
100
AcDbEntity
  8
RONDO
100
AcDbLine
 10
-1.324653863892706
 20
79.80721870087191
 30
0.0
 11
-0.9697105758825159
 21
79.80721870087191
 31
0.0
  0
LINE
  5
6AF
330
6A3
100
AcDbEntity
  8
RONDO
100
AcDbLine
 10
-1.324653863892677
 20
78.80073567870605
 30
0.0
 11
-1.324653863892706
 21
79.80721870087191
 31
0.0
  0
LINE
  5
6B0
330
6A3
100
AcDbEntity
  8
RONDO
100
AcDbLine
 10
-3.969710695091805
 20
78.80073567870605
 30
0.0
 11
-1.324653863892677
 21
78.80073567870605
 31
0.0
  0
SPLINE
  5
6B1
330
6A3
100
AcDbEntity
  8
RONDO
100
AcDbSpline
210
0.0
220
0.0
230
1.0
 70
     8
 71
     2
 72
     7
 73
     4
 74
     0
 42
0.000000001
 43
0.0000000001
 40
0.0
 40
0.0
 40
0.0
 40
1.0
 40
2.0
 40
2.0
 40
2.0
 10
-2.491590701186424
 20
81.84206481090283
 30
0.0
 10
-2.428381622499699
 20
81.92229171846676
 30
0.0
 10
-2.38705260951221
 20
82.12164342817112
 30
0.0
 10
-2.38705260951221
 20
82.22618151984537
 30
0.0
  0
SPLINE
  5
6B2
330
6A3
100
AcDbEntity
  8
RONDO
100
AcDbSpline
210
0.0
220
0.0
230
1.0
 70
     8
 71
     2
 72
     7
 73
     4
 74
     0
 42
0.000000001
 43
0.0000000001
 40
0.0
 40
0.0
 40
0.0
 40
1.0
 40
2.0
 40
2.0
 40
2.0
 10
-2.38705260951221
 20
82.22618151984537
 30
0.0
 10
-2.38705260951221
 20
82.36718638768502
 30
0.0
 10
-2.472141753898199
 20
82.63217829448715
 30
0.0
 10
-2.552368661462139
 20
82.76102757027166
 30
0.0
  0
SPLINE
  5
6B3
330
6A3
100
AcDbEntity
  8
RONDO
100
AcDbSpline
210
0.0
220
0.0
230
1.0
 70
     8
 71
     2
 72
     7
 73
     4
 74
     0
 42
0.000000001
 43
0.0000000001
 40
0.0
 40
0.0
 40
0.0
 40
1.0
 40
2.0
 40
2.0
 40
2.0
 10
-2.552368661462139
 20
82.76102757027166
 30
0.0
 10
-2.596128792860667
 20
82.76345868868267
 30
0.0
 10
-2.678786818835618
 20
82.76832092550472
 30
0.0
 10
-2.741995897522372
 20
82.76832092550472
 30
0.0
  0
SPLINE
  5
6B4
330
6A3
100
AcDbEntity
  8
RONDO
100
AcDbSpline
210
0.0
220
0.0
230
1.0
 70
     8
 71
     2
 72
     7
 73
     4
 74
     0
 42
0.000000001
 43
0.0000000001
 40
0.0
 40
0.0
 40
0.0
 40
1.0
 40
2.0
 40
2.0
 40
2.0
 10
-2.741995897522372
 20
82.76832092550472
 30
0.0
 10
-3.053179054134034
 20
82.76832092550472
 30
0.0
 10
-3.434864644665509
 20
82.64676500495331
 30
0.0
 10
-3.534540499517703
 20
82.55438250533421
 30
0.0
  0
SPLINE
  5
6B5
330
6A3
100
AcDbEntity
  8
RONDO
100
AcDbSpline
210
0.0
220
0.0
230
1.0
 70
     8
 71
     2
 72
     7
 73
     4
 74
     0
 42
0.000000001
 43
0.0000000001
 40
0.0
 40
0.0
 40
0.0
 40
1.0
 40
2.0
 40
2.0
 40
2.0
 10
-3.534540499517703
 20
82.55438250533421
 30
0.0
 10
-3.629354117547819
 20
82.46929336094821
 30
0.0
 10
-3.704718788289682
 20
82.28452836171001
 30
0.0
 10
-3.704718788289682
 20
82.1799902700358
 30
0.0
  0
SPLINE
  5
6B6
330
6A3
100
AcDbEntity
  8
RONDO
100
AcDbSpline
210
0.0
220
0.0
230
1.0
 70
     8
 71
     2
 72
     7
 73
     4
 74
     0
 42
0.000000001
 43
0.0000000001
 40
0.0
 40
0.0
 40
0.0
 40
1.0
 40
2.0
 40
2.0
 40
2.0
 10
-3.704718788289682
 20
82.1799902700358
 30
0.0
 10
-3.704718788289682
 20
81.93687842893295
 30
0.0
 10
-3.359499973923647
 20
81.63785086437641
 30
0.0
 10
-3.014281159557583
 20
81.63785086437641
 30
0.0
  0
SPLINE
  5
6B7
330
6A3
100
AcDbEntity
  8
RONDO
100
AcDbSpline
210
0.0
220
0.0
230
1.0
 70
     8
 71
     2
 72
     7
 73
     4
 74
     0
 42
0.000000001
 43
0.0000000001
 40
0.0
 40
0.0
 40
0.0
 40
1.0
 40
2.0
 40
2.0
 40
2.0
 10
-3.014281159557583
 20
81.63785086437641
 30
0.0
 10
-2.8295161603194
 20
81.63785086437641
 30
0.0
 10
-2.579110963983453
 20
81.73509560081759
 30
0.0
 10
-2.491590701186424
 20
81.84206481090283
 30
0.0
  0
SPLINE
  5
6B8
330
6A3
100
AcDbEntity
  8
RONDO
100
AcDbSpline
210
0.0
220
0.0
230
1.0
 70
     8
 71
     2
 72
     7
 73
     4
 74
     0
 42
0.000000001
 43
0.0000000001
 40
0.0
 40
0.0
 40
0.0
 40
1.0
 40
2.0
 40
2.0
 40
2.0
 10
-2.23146103120635
 20
81.55519283840147
 30
0.0
 10
-2.355448070168819
 20
81.38987678645154
 30
0.0
 10
-2.739564779111333
 20
81.22942297132363
 30
0.0
 10
-2.997263330680368
 20
81.22942297132363
 30
0.0
  0
SPLINE
  5
6B9
330
6A3
100
AcDbEntity
  8
RONDO
100
AcDbSpline
210
0.0
220
0.0
230
1.0
 70
     8
 71
     2
 72
     7
 73
     4
 74
     0
 42
0.000000001
 43
0.0000000001
 40
0.0
 40
0.0
 40
0.0
 40
1.0
 40
2.0
 40
2.0
 40
2.0
 10
-2.053989387201283
 20
82.13623013863729
 30
0.0
 10
-2.053989387201283
 20
81.96118961304321
 30
0.0
 10
-2.124491821121097
 20
81.69862882465215
 30
0.0
 10
-2.23146103120635
 20
81.55519283840147
 30
0.0
  0
SPLINE
  5
6BA
330
6A3
100
AcDbEntity
  8
RONDO
100
AcDbSpline
210
0.0
220
0.0
230
1.0
 70
     8
 71
     2
 72
     7
 73
     4
 74
     0
 42
0.000000001
 43
0.0000000001
 40
0.0
 40
0.0
 40
0.0
 40
1.0
 40
2.0
 40
2.0
 40
2.0
 10
-2.263065570549741
 20
82.76102757027166
 30
0.0
 10
-2.163389715697576
 20
82.61759158402098
 30
0.0
 10
-2.053989387201283
 20
82.31613290105341
 30
0.0
 10
-2.053989387201283
 20
82.13623013863729
 30
0.0
  0
SPLINE
  5
6BB
330
6A3
100
AcDbEntity
  8
RONDO
100
AcDbSpline
210
0.0
220
0.0
230
1.0
 70
     8
 71
     2
 72
     7
 73
     4
 74
     0
 42
0.000000001
 43
0.0000000001
 40
0.0
 40
0.0
 40
0.0
 40
1.0
 40
2.0
 40
2.0
 40
2.0
 10
-1.261444785205952
 20
81.88339382389031
 30
0.0
 10
-1.261444785205952
 20
82.25778605918874
 30
0.0
 10
-1.767117414699896
 20
82.71726743887317
 30
0.0
 10
-2.263065570549741
 20
82.76102757027166
 30
0.0
  0
SPLINE
  5
6BC
330
6A3
100
AcDbEntity
  8
RONDO
100
AcDbSpline
210
0.0
220
0.0
230
1.0
 70
     8
 71
     2
 72
     7
 73
     4
 74
     0
 42
0.000000001
 43
0.0000000001
 40
0.0
 40
0.0
 40
0.0
 40
1.0
 40
2.0
 40
2.0
 40
2.0
 10
-1.341671692769892
 20
81.50657047018091
 30
0.0
 10
-1.31249827183754
 20
81.56248619363456
 30
0.0
 10
-1.261444785205952
 20
81.76670014016094
 30
0.0
 10
-1.261444785205952
 20
81.88339382389031
 30
0.0
  0
LINE
  5
6BD
330
6A3
100
AcDbEntity
  8
RONDO
100
AcDbLine
 10
-1.341671692769892
 20
81.48955264130369
 30
0.0
 11
-1.341671692769892
 21
81.50657047018091
 31
0.0
  0
LINE
  5
6BE
330
6A3
100
AcDbEntity
  8
RONDO
100
AcDbLine
 10
-0.9551238654163398
 20
81.48955264130369
 30
0.0
 11
-1.341671692769892
 21
81.48955264130369
 31
0.0
  0
SPLINE
  5
6BF
330
6A3
100
AcDbEntity
  8
RONDO
100
AcDbSpline
210
0.0
220
0.0
230
1.0
 70
     8
 71
     2
 72
     7
 73
     4
 74
     0
 42
0.000000001
 43
0.0000000001
 40
0.0
 40
0.0
 40
0.0
 40
1.0
 40
2.0
 40
2.0
 40
2.0
 10
-0.9137948524288788
 20
81.82990921884771
 30
0.0
 10
-0.9137948524288788
 20
81.73023336399555
 30
0.0
 10
-0.9332437997170757
 20
81.55519283840147
 30
0.0
 10
-0.9551238654163398
 20
81.48955264130369
 30
0.0
  0
SPLINE
  5
6C0
330
6A3
100
AcDbEntity
  8
RONDO
100
AcDbSpline
210
0.0
220
0.0
230
1.0
 70
     8
 71
     2
 72
     7
 73
     4
 74
     0
 42
0.000000001
 43
0.0000000001
 40
0.0
 40
0.0
 40
0.0
 40
1.0
 40
2.0
 40
2.0
 40
2.0
 10
-1.397587416223558
 20
82.84611671465766
 30
0.0
 10
-1.169062285586875
 20
82.68323178111874
 30
0.0
 10
-0.9137948524288788
 20
82.16783467798066
 30
0.0
 10
-0.9137948524288788
 20
81.82990921884771
 30
0.0
  0
SPLINE
  5
6C1
330
6A3
100
AcDbEntity
  8
RONDO
100
AcDbSpline
210
0.0
220
0.0
230
1.0
 70
     8
 71
     2
 72
     7
 73
     4
 74
     0
 42
0.000000001
 43
0.0000000001
 40
0.0
 40
0.0
 40
0.0
 40
1.0
 40
2.0
 40
2.0
 40
2.0
 10
-2.652044516314305
 20
83.17431770014653
 30
0.0
 10
-2.260634452138702
 20
83.17431770014653
 30
0.0
 10
-1.630974783682319
 20
83.01386388501862
 30
0.0
 10
-1.397587416223558
 20
82.84611671465766
 30
0.0
  0
SPLINE
  5
6C2
330
6A3
100
AcDbEntity
  8
RONDO
100
AcDbSpline
210
0.0
220
0.0
230
1.0
 70
     8
 71
     2
 72
     7
 73
     4
 74
     0
 42
0.000000001
 43
0.0000000001
 40
0.0
 40
0.0
 40
0.0
 40
1.0
 40
2.0
 40
2.0
 40
2.0
 10
-3.760634511743347
 20
82.84368559624661
 30
0.0
 10
-3.597749578204428
 20
82.99927717455245
 30
0.0
 10
-3.050747935723023
 20
83.17431770014653
 30
0.0
 10
-2.652044516314305
 20
83.17431770014653
 30
0.0
  0
SPLINE
  5
6C3
330
6A3
100
AcDbEntity
  8
RONDO
100
AcDbSpline
210
0.0
220
0.0
230
1.0
 70
     8
 71
     2
 72
     7
 73
     4
 74
     0
 42
0.000000001
 43
0.0000000001
 40
0.0
 40
0.0
 40
0.0
 40
1.0
 40
2.0
 40
2.0
 40
2.0
 10
-4.032919773778559
 20
82.18242138844685
 30
0.0
 10
-4.032919773778559
 20
82.3842042165622
 30
0.0
 10
-3.896777142760953
 20
82.71726743887317
 30
0.0
 10
-3.760634511743347
 20
82.84368559624661
 30
0.0
  0
SPLINE
  5
6C4
330
6A3
100
AcDbEntity
  8
RONDO
100
AcDbSpline
210
0.0
220
0.0
230
1.0
 70
     8
 71
     2
 72
     7
 73
     4
 74
     0
 42
0.000000001
 43
0.0000000001
 40
0.0
 40
0.0
 40
0.0
 40
1.0
 40
2.0
 40
2.0
 40
2.0
 10
-3.750910038099249
 20
81.51143270700297
 30
0.0
 10
-3.889483787527865
 20
81.64514421960953
 30
0.0
 10
-4.032919773778559
 20
81.98063856033147
 30
0.0
 10
-4.032919773778559
 20
82.18242138844685
 30
0.0
  0
SPLINE
  5
6C5
330
6A3
100
AcDbEntity
  8
RONDO
100
AcDbSpline
210
0.0
220
0.0
230
1.0
 70
     8
 71
     2
 72
     7
 73
     4
 74
     0
 42
0.000000001
 43
0.0000000001
 40
0.0
 40
0.0
 40
0.0
 40
1.0
 40
2.0
 40
2.0
 40
2.0
 10
-2.997263330680368
 20
81.22942297132363
 30
0.0
 10
-3.22821957972809
 20
81.22942297132363
 30
0.0
 10
-3.619629643903692
 20
81.38258343121842
 30
0.0
 10
-3.750910038099249
 20
81.51143270700297
 30
0.0
  0
SPLINE
  5
6C6
330
6A3
100
AcDbEntity
  8
RONDO
100
AcDbSpline
210
0.0
220
0.0
230
1.0
 70
     8
 71
     2
 72
     7
 73
     4
 74
     0
 42
0.000000001
 43
0.0000000001
 40
0.0
 40
0.0
 40
0.0
 40
1.0
 40
2.0
 40
2.0
 40
2.0
 10
-1.34653392959197
 20
86.4538964366241
 30
0.0
 10
-1.295480442960354
 20
86.52926110736599
 30
0.0
 10
-1.254151429972864
 20
86.71402610660416
 30
0.0
 10
-1.254151429972864
 20
86.81856419827838
 30
0.0
  0
SPLINE
  5
6C7
330
6A3
100
AcDbEntity
  8
RONDO
100
AcDbSpline
210
0.0
220
0.0
230
1.0
 70
     8
 71
     2
 72
     7
 73
     4
 74
     0
 42
0.000000001
 43
0.0000000001
 40
0.0
 40
0.0
 40
0.0
 40
1.0
 40
2.0
 40
2.0
 40
2.0
 10
-1.672303796669808
 20
86.29587373990725
 30
0.0
 10
-1.558041231351438
 20
86.29587373990725
 30
0.0
 10
-1.395156297812519
 20
86.38339400270425
 30
0.0
 10
-1.34653392959197
 20
86.4538964366241
 30
0.0
  0
SPLINE
  5
6C8
330
6A3
100
AcDbEntity
  8
RONDO
100
AcDbSpline
210
0.0
220
0.0
230
1.0
 70
     8
 71
     2
 72
     7
 73
     4
 74
     0
 42
0.000000001
 43
0.0000000001
 40
0.0
 40
0.0
 40
0.0
 40
1.0
 40
2.0
 40
2.0
 40
2.0
 10
-2.175545307752713
 20
86.90608446107541
 30
0.0
 10
-2.175545307752713
 20
86.63623031745123
 30
0.0
 10
-1.917846756183678
 20
86.29587373990725
 30
0.0
 10
-1.672303796669808
 20
86.29587373990725
 30
0.0
  0
LINE
  5
6C9
330
6A3
100
AcDbEntity
  8
RONDO
100
AcDbLine
 10
-2.175545307752713
 20
87.03979597368197
 30
0.0
 11
-2.175545307752713
 21
86.90608446107541
 31
0.0
  0
LINE
  5
6CA
330
6A3
100
AcDbEntity
  8
RONDO
100
AcDbLine
 10
-2.508608530063639
 20
87.03979597368197
 30
0.0
 11
-2.175545307752713
 21
87.03979597368197
 31
0.0
  0
LINE
  5
6CB
330
6A3
100
AcDbEntity
  8
RONDO
100
AcDbLine
 10
-2.508608530063639
 20
86.86961768490997
 30
0.0
 11
-2.508608530063639
 21
87.03979597368197
 31
0.0
  0
SPLINE
  5
6CC
330
6A3
100
AcDbEntity
  8
RONDO
100
AcDbSpline
210
0.0
220
0.0
230
1.0
 70
     8
 71
     2
 72
     7
 73
     4
 74
     0
 42
0.000000001
 43
0.0000000001
 40
0.0
 40
0.0
 40
0.0
 40
1.0
 40
2.0
 40
2.0
 40
2.0
 10
-2.615577740148893
 20
86.41742966045866
 30
0.0
 10
-2.554799779873178
 20
86.50251880484466
 30
0.0
 10
-2.508608530063639
 20
86.73347505389239
 30
0.0
 10
-2.508608530063639
 20
86.86961768490997
 30
0.0
  0
SPLINE
  5
6CD
330
6A3
100
AcDbEntity
  8
RONDO
100
AcDbSpline
210
0.0
220
0.0
230
1.0
 70
     8
 71
     2
 72
     7
 73
     4
 74
     0
 42
0.000000001
 43
0.0000000001
 40
0.0
 40
0.0
 40
0.0
 40
1.0
 40
2.0
 40
2.0
 40
2.0
 10
-3.050747935723023
 20
86.23752689804254
 30
0.0
 10
-2.887863002184104
 20
86.23752689804254
 30
0.0
 10
-2.676355700424608
 20
86.33234051607265
 30
0.0
 10
-2.615577740148893
 20
86.41742966045866
 30
0.0
  0
SPLINE
  5
6CE
330
6A3
100
AcDbEntity
  8
RONDO
100
AcDbSpline
210
0.0
220
0.0
230
1.0
 70
     8
 71
     2
 72
     7
 73
     4
 74
     0
 42
0.000000001
 43
0.0000000001
 40
0.0
 40
0.0
 40
0.0
 40
1.0
 40
2.0
 40
2.0
 40
2.0
 10
-3.517522670640488
 20
86.40284294999251
 30
0.0
 10
-3.427571289432449
 20
86.32261604242854
 30
0.0
 10
-3.213632869261914
 20
86.23752689804254
 30
0.0
 10
-3.050747935723023
 20
86.23752689804254
 30
0.0
  0
SPLINE
  5
6CF
330
6A3
100
AcDbEntity
  8
RONDO
100
AcDbSpline
210
0.0
220
0.0
230
1.0
 70
     8
 71
     2
 72
     7
 73
     4
 74
     0
 42
0.000000001
 43
0.0000000001
 40
0.0
 40
0.0
 40
0.0
 40
1.0
 40
2.0
 40
2.0
 40
2.0
 10
-3.685269841001485
 20
86.85746209285483
 30
0.0
 10
-3.685269841001485
 20
86.73347505389239
 30
0.0
 10
-3.607474051848555
 20
86.48550097596745
 30
0.0
 10
-3.517522670640488
 20
86.40284294999251
 30
0.0
  0
SPLINE
  5
6D0
330
6A3
100
AcDbEntity
  8
RONDO
100
AcDbSpline
210
0.0
220
0.0
230
1.0
 70
     8
 71
     2
 72
     7
 73
     4
 74
     0
 42
0.000000001
 43
0.0000000001
 40
0.0
 40
0.0
 40
0.0
 40
1.0
 40
2.0
 40
2.0
 40
2.0
 10
-3.422709052610372
 20
87.62326439232884
 30
0.0
 10
-3.515091552229478
 20
87.49684623495534
 30
0.0
 10
-3.685269841001485
 20
87.06896939461429
 30
0.0
 10
-3.685269841001485
 20
86.85746209285483
 30
0.0
  0
LINE
  5
6D1
330
6A3
100
AcDbEntity
  8
RONDO
100
AcDbLine
 10
-3.422709052610372
 20
87.65243781326118
 30
0.0
 11
-3.422709052610372
 21
87.62326439232884
 31
0.0
  0
LINE
  5
6D2
330
6A3
100
AcDbEntity
  8
RONDO
100
AcDbLine
 10
-3.848154774540404
 20
87.65243781326118
 30
0.0
 11
-3.422709052610372
 21
87.65243781326118
 31
0.0
  0
SPLINE
  5
6D3
330
6A3
100
AcDbEntity
  8
RONDO
100
AcDbSpline
210
0.0
220
0.0
230
1.0
 70
     8
 71
     2
 72
     7
 73
     4
 74
     0
 42
0.000000001
 43
0.0000000001
 40
0.0
 40
0.0
 40
0.0
 40
1.0
 40
2.0
 40
2.0
 40
2.0
 10
-4.032919773778559
 20
86.83315090874456
 30
0.0
 10
-4.032919773778559
 20
87.0592449209702
 30
0.0
 10
-3.923519445282266
 20
87.50170847177745
 30
0.0
 10
-3.848154774540404
 20
87.65243781326118
 30
0.0
  0
SPLINE
  5
6D4
330
6A3
100
AcDbEntity
  8
RONDO
100
AcDbSpline
210
0.0
220
0.0
230
1.0
 70
     8
 71
     2
 72
     7
 73
     4
 74
     0
 42
0.000000001
 43
0.0000000001
 40
0.0
 40
0.0
 40
0.0
 40
1.0
 40
2.0
 40
2.0
 40
2.0
 10
-3.755772274921298
 20
86.09409091179186
 30
0.0
 10
-3.891914905938904
 20
86.22537130598741
 30
0.0
 10
-4.032919773778559
 20
86.59733242287478
 30
0.0
 10
-4.032919773778559
 20
86.83315090874456
 30
0.0
  0
SPLINE
  5
6D5
330
6A3
100
AcDbEntity
  8
RONDO
100
AcDbSpline
210
0.0
220
0.0
230
1.0
 70
     8
 71
     2
 72
     7
 73
     4
 74
     0
 42
0.000000001
 43
0.0000000001
 40
0.0
 40
0.0
 40
0.0
 40
1.0
 40
2.0
 40
2.0
 40
2.0
 10
-3.079921356655347
 20
85.82909900498973
 30
0.0
 10
-3.281704184770745
 20
85.82909900498973
 30
0.0
 10
-3.62449188072577
 20
85.96767275441838
 30
0.0
 10
-3.755772274921298
 20
86.09409091179186
 30
0.0
  0
SPLINE
  5
6D6
330
6A3
100
AcDbEntity
  8
RONDO
100
AcDbSpline
210
0.0
220
0.0
230
1.0
 70
     8
 71
     2
 72
     7
 73
     4
 74
     0
 42
0.000000001
 43
0.0000000001
 40
0.0
 40
0.0
 40
0.0
 40
1.0
 40
2.0
 40
2.0
 40
2.0
 10
-2.525626358940826
 20
86.03817518833819
 30
0.0
 10
-2.610715503326815
 20
85.94579268871914
 30
0.0
 10
-2.883000765362027
 20
85.82909900498973
 30
0.0
 10
-3.079921356655347
 20
85.82909900498973
 30
0.0
  0
SPLINE
  5
6D7
330
6A3
100
AcDbEntity
  8
RONDO
100
AcDbSpline
210
0.0
220
0.0
230
1.0
 70
     8
 71
     2
 72
     7
 73
     4
 74
     0
 42
0.000000001
 43
0.0000000001
 40
0.0
 40
0.0
 40
0.0
 40
1.0
 40
2.0
 40
2.0
 40
2.0
 10
-2.331136886058544
 20
86.44174084456896
 30
0.0
 10
-2.350585833346769
 20
86.34692722653884
 30
0.0
 10
-2.438106096143798
 20
86.1305576879573
 30
0.0
 10
-2.525626358940826
 20
86.03817518833819
 30
0.0
  0
LINE
  5
6D8
330
6A3
100
AcDbEntity
  8
RONDO
100
AcDbLine
 10
-2.301963465126192
 20
86.44174084456896
 30
0.0
 11
-2.331136886058544
 21
86.44174084456896
 31
0.0
  0
SPLINE
  5
6D9
330
6A3
100
AcDbEntity
  8
RONDO
100
AcDbSpline
210
0.0
220
0.0
230
1.0
 70
     8
 71
     2
 72
     7
 73
     4
 74
     0
 42
0.000000001
 43
0.0000000001
 40
0.0
 40
0.0
 40
0.0
 40
1.0
 40
2.0
 40
2.0
 40
2.0
 10
-1.630974783682319
 20
85.88744584685441
 30
0.0
 10
-1.878948861607227
 20
85.88744584685441
 30
0.0
 10
-2.253341096905643
 20
86.21321571393227
 30
0.0
 10
-2.301963465126192
 20
86.44174084456896
 30
0.0
  0
SPLINE
  5
6DA
330
6A3
100
AcDbEntity
  8
RONDO
100
AcDbSpline
210
0.0
220
0.0
230
1.0
 70
     8
 71
     2
 72
     7
 73
     4
 74
     0
 42
0.000000001
 43
0.0000000001
 40
0.0
 40
0.0
 40
0.0
 40
1.0
 40
2.0
 40
2.0
 40
2.0
 10
-1.076679785967797
 20
86.15486887206756
 30
0.0
 10
-1.171493403997914
 20
86.02358847787204
 30
0.0
 10
-1.446209784444135
 20
85.88744584685441
 30
0.0
 10
-1.630974783682319
 20
85.88744584685441
 30
0.0
  0
SPLINE
  5
6DB
330
6A3
100
AcDbEntity
  8
RONDO
100
AcDbSpline
210
0.0
220
0.0
230
1.0
 70
     8
 71
     2
 72
     7
 73
     4
 74
     0
 42
0.000000001
 43
0.0000000001
 40
0.0
 40
0.0
 40
0.0
 40
1.0
 40
2.0
 40
2.0
 40
2.0
 10
-0.9065014971957907
 20
86.78695965893501
 30
0.0
 10
-0.9065014971957907
 20
86.58274571240861
 30
0.0
 10
-0.9891595231707412
 20
86.27885591103003
 30
0.0
 10
-1.076679785967797
 20
86.15486887206756
 30
0.0
  0
SPLINE
  5
6DC
330
6A3
100
AcDbEntity
  8
RONDO
100
AcDbSpline
210
0.0
220
0.0
230
1.0
 70
     8
 71
     2
 72
     7
 73
     4
 74
     0
 42
0.000000001
 43
0.0000000001
 40
0.0
 40
0.0
 40
0.0
 40
1.0
 40
2.0
 40
2.0
 40
2.0
 10
-1.091266496433973
 20
87.56977978728622
 30
0.0
 10
-1.020764062514132
 20
87.43849939309066
 30
0.0
 10
-0.9065014971957907
 20
86.98874248705042
 30
0.0
 10
-0.9065014971957907
 20
86.78695965893501
 30
0.0
  0
LINE
  5
6DD
330
6A3
100
AcDbEntity
  8
RONDO
100
AcDbLine
 10
-1.516712218363977
 20
87.56977978728622
 30
0.0
 11
-1.091266496433973
 21
87.56977978728622
 31
0.0
  0
LINE
  5
6DE
330
6A3
100
AcDbEntity
  8
RONDO
100
AcDbLine
 10
-1.516712218363977
 20
87.54546860317594
 30
0.0
 11
-1.516712218363977
 21
87.56977978728622
 31
0.0
  0
SPLINE
  5
6DF
330
6A3
100
AcDbEntity
  8
RONDO
100
AcDbSpline
210
0.0
220
0.0
230
1.0
 70
     8
 71
     2
 72
     7
 73
     4
 74
     0
 42
0.000000001
 43
0.0000000001
 40
0.0
 40
0.0
 40
0.0
 40
1.0
 40
2.0
 40
2.0
 40
2.0
 10
-1.34896504800298
 20
87.24887215703043
 30
0.0
 10
-1.39029406099047
 20
87.34611689347159
 30
0.0
 10
-1.477814323787498
 20
87.48955287972227
 30
0.0
 10
-1.516712218363977
 20
87.54546860317594
 30
0.0
  0
SPLINE
  5
6E0
330
6A3
100
AcDbEntity
  8
RONDO
100
AcDbSpline
210
0.0
220
0.0
230
1.0
 70
     8
 71
     2
 72
     7
 73
     4
 74
     0
 42
0.000000001
 43
0.0000000001
 40
0.0
 40
0.0
 40
0.0
 40
1.0
 40
2.0
 40
2.0
 40
2.0
 10
-1.254151429972864
 20
86.81856419827838
 30
0.0
 10
-1.254151429972864
 20
86.92796452677468
 30
0.0
 10
-1.307636035015519
 20
87.14433406535622
 30
0.0
 10
-1.34896504800298
 20
87.24887215703043
 30
0.0
  0
SPLINE
  5
6E1
330
6A3
100
AcDbEntity
  8
RONDO
100
AcDbSpline
210
0.0
220
0.0
230
1.0
 70
     8
 71
     2
 72
     7
 73
     4
 74
     0
 42
0.000000001
 43
0.0000000001
 40
0.0
 40
0.0
 40
0.0
 40
1.0
 40
2.0
 40
2.0
 40
2.0
 10
3.376517649132267
 20
74.85016776520629
 30
0.0
 10
3.532109227438098
 20
74.96929256734668
 30
0.0
 10
3.687700805743929
 20
75.30478690806862
 30
0.0
 10
3.687700805743929
 20
75.51386309141705
 30
0.0
  0
SPLINE
  5
6E2
330
6A3
100
AcDbEntity
  8
RONDO
100
AcDbSpline
210
0.0
220
0.0
230
1.0
 70
     8
 71
     2
 72
     7
 73
     4
 74
     0
 42
0.000000001
 43
0.0000000001
 40
0.0
 40
0.0
 40
0.0
 40
1.0
 40
2.0
 40
2.0
 40
2.0
 10
3.687700805743929
 20
75.51386309141705
 30
0.0
 10
3.687700805743929
 20
75.73023262999862
 30
0.0
 10
3.536971464260147
 20
76.05600249707646
 30
0.0
 10
3.376517649132267
 20
76.17998953603893
 30
0.0
  0
SPLINE
  5
6E3
330
6A3
100
AcDbEntity
  8
RONDO
100
AcDbSpline
210
0.0
220
0.0
230
1.0
 70
     8
 71
     2
 72
     7
 73
     4
 74
     0
 42
0.000000001
 43
0.0000000001
 40
0.0
 40
0.0
 40
0.0
 40
1.0
 40
2.0
 40
2.0
 40
2.0
 10
3.376517649132267
 20
76.17998953603893
 30
0.0
 10
3.223357189237475
 20
76.29911433817932
 30
0.0
 10
2.761444691142031
 20
76.4255324955528
 30
0.0
 10
2.469710481818594
 20
76.4255324955528
 30
0.0
  0
SPLINE
  5
6E4
330
6A3
100
AcDbEntity
  8
RONDO
100
AcDbSpline
210
0.0
220
0.0
230
1.0
 70
     8
 71
     2
 72
     7
 73
     4
 74
     0
 42
0.000000001
 43
0.0000000001
 40
0.0
 40
0.0
 40
0.0
 40
1.0
 40
2.0
 40
2.0
 40
2.0
 10
2.469710481818594
 20
76.4255324955528
 30
0.0
 10
1.878948707938661
 20
76.4255324955528
 30
0.0
 10
1.251720157893288
 20
75.92958433970299
 30
0.0
 10
1.251720157893288
 20
75.51386309141705
 30
0.0
  0
SPLINE
  5
6E5
330
6A3
100
AcDbEntity
  8
RONDO
100
AcDbSpline
210
0.0
220
0.0
230
1.0
 70
     8
 71
     2
 72
     7
 73
     4
 74
     0
 42
0.000000001
 43
0.0000000001
 40
0.0
 40
0.0
 40
0.0
 40
1.0
 40
2.0
 40
2.0
 40
2.0
 10
1.251720157893288
 20
75.51386309141705
 30
0.0
 10
1.251720157893288
 20
75.0981418431312
 30
0.0
 10
1.878948707938661
 20
74.6046248056924
 30
0.0
 10
2.469710481818594
 20
74.6046248056924
 30
0.0
  0
SPLINE
  5
6E6
330
6A3
100
AcDbEntity
  8
RONDO
100
AcDbSpline
210
0.0
220
0.0
230
1.0
 70
     8
 71
     2
 72
     7
 73
     4
 74
     0
 42
0.000000001
 43
0.0000000001
 40
0.0
 40
0.0
 40
0.0
 40
1.0
 40
2.0
 40
2.0
 40
2.0
 10
2.469710481818594
 20
74.6046248056924
 30
0.0
 10
2.766306927964109
 20
74.6046248056924
 30
0.0
 10
3.225788307648514
 20
74.73347408147688
 30
0.0
 10
3.376517649132267
 20
74.85016776520629
 30
0.0
  0
SPLINE
  5
6E7
330
6A3
100
AcDbEntity
  8
RONDO
100
AcDbSpline
210
0.0
220
0.0
230
1.0
 70
     8
 71
     2
 72
     7
 73
     4
 74
     0
 42
0.000000001
 43
0.0000000001
 40
0.0
 40
0.0
 40
0.0
 40
1.0
 40
2.0
 40
2.0
 40
2.0
 10
4.032919620109993
 20
75.51629420982812
 30
0.0
 10
4.032919620109993
 20
75.20997329003851
 30
0.0
 10
3.818981199939486
 20
74.71888737101074
 30
0.0
 10
3.626922845468214
 20
74.54870908223873
 30
0.0
  0
SPLINE
  5
6E8
330
6A3
100
AcDbEntity
  8
RONDO
100
AcDbSpline
210
0.0
220
0.0
230
1.0
 70
     8
 71
     2
 72
     7
 73
     4
 74
     0
 42
0.000000001
 43
0.0000000001
 40
0.0
 40
0.0
 40
0.0
 40
1.0
 40
2.0
 40
2.0
 40
2.0
 10
3.626922845468214
 20
76.48144821900647
 30
0.0
 10
3.826274555172545
 20
76.30640769341238
 30
0.0
 10
4.032919620109993
 20
75.81775289279566
 30
0.0
 10
4.032919620109993
 20
75.51629420982812
 30
0.0
  0
SPLINE
  5
6E9
330
6A3
100
AcDbEntity
  8
RONDO
100
AcDbSpline
210
0.0
220
0.0
230
1.0
 70
     8
 71
     2
 72
     7
 73
     4
 74
     0
 42
0.000000001
 43
0.0000000001
 40
0.0
 40
0.0
 40
0.0
 40
1.0
 40
2.0
 40
2.0
 40
2.0
 10
2.469710481818594
 20
76.84125374383867
 30
0.0
 10
2.846533835528049
 20
76.84125374383867
 30
0.0
 10
3.420277780530767
 20
76.65405762618951
 30
0.0
 10
3.626922845468214
 20
76.48144821900647
 30
0.0
  0
SPLINE
  5
6EA
330
6A3
100
AcDbEntity
  8
RONDO
100
AcDbSpline
210
0.0
220
0.0
230
1.0
 70
     8
 71
     2
 72
     7
 73
     4
 74
     0
 42
0.000000001
 43
0.0000000001
 40
0.0
 40
0.0
 40
0.0
 40
1.0
 40
2.0
 40
2.0
 40
2.0
 10
1.314929236580013
 20
76.48387933741751
 30
0.0
 10
1.514280946284344
 20
76.65648874460052
 30
0.0
 10
2.100180483342256
 20
76.84125374383867
 30
0.0
 10
2.469710481818594
 20
76.84125374383867
 30
0.0
  0
SPLINE
  5
6EB
330
6A3
100
AcDbEntity
  8
RONDO
100
AcDbSpline
210
0.0
220
0.0
230
1.0
 70
     8
 71
     2
 72
     7
 73
     4
 74
     0
 42
0.000000001
 43
0.0000000001
 40
0.0
 40
0.0
 40
0.0
 40
1.0
 40
2.0
 40
2.0
 40
2.0
 10
0.9065013435271964
 20
75.51629420982812
 30
0.0
 10
0.9065013435271964
 20
75.82018401120669
 30
0.0
 10
1.113146408464643
 20
76.30640769341238
 30
0.0
 10
1.314929236580013
 20
76.48387933741751
 30
0.0
  0
SPLINE
  5
6EC
330
6A3
100
AcDbEntity
  8
RONDO
100
AcDbSpline
210
0.0
220
0.0
230
1.0
 70
     8
 71
     2
 72
     7
 73
     4
 74
     0
 42
0.000000001
 43
0.0000000001
 40
0.0
 40
0.0
 40
0.0
 40
1.0
 40
2.0
 40
2.0
 40
2.0
 10
1.314929236580013
 20
74.54870908223873
 30
0.0
 10
1.105853053231555
 20
74.73347408147688
 30
0.0
 10
0.9065013435271964
 20
75.22212888209364
 30
0.0
 10
0.9065013435271964
 20
75.51629420982812
 30
0.0
  0
SPLINE
  5
6ED
330
6A3
100
AcDbEntity
  8
RONDO
100
AcDbSpline
210
0.0
220
0.0
230
1.0
 70
     8
 71
     2
 72
     7
 73
     4
 74
     0
 42
0.000000001
 43
0.0000000001
 40
0.0
 40
0.0
 40
0.0
 40
1.0
 40
2.0
 40
2.0
 40
2.0
 10
2.469710481818594
 20
74.18890355740649
 30
0.0
 10
2.105042720164306
 20
74.18890355740649
 30
0.0
 10
1.514280946284372
 20
74.37366855664468
 30
0.0
 10
1.314929236580013
 20
74.54870908223873
 30
0.0
  0
SPLINE
  5
6EE
330
6A3
100
AcDbEntity
  8
RONDO
100
AcDbSpline
210
0.0
220
0.0
230
1.0
 70
     8
 71
     2
 72
     7
 73
     4
 74
     0
 42
0.000000001
 43
0.0000000001
 40
0.0
 40
0.0
 40
0.0
 40
1.0
 40
2.0
 40
2.0
 40
2.0
 10
3.626922845468214
 20
74.54870908223873
 30
0.0
 10
3.427571135763884
 20
74.37853079346672
 30
0.0
 10
2.84410271711701
 20
74.18890355740649
 30
0.0
 10
2.469710481818594
 20
74.18890355740649
 30
0.0
  0
SPLINE
  5
6EF
330
6A3
100
AcDbEntity
  8
RONDO
100
AcDbSpline
210
0.0
220
0.0
230
1.0
 70
     8
 71
     2
 72
     7
 73
     4
 74
     0
 42
0.000000001
 43
0.0000000001
 40
0.0
 40
0.0
 40
0.0
 40
1.0
 40
2.0
 40
2.0
 40
2.0
 10
3.44458896464107
 20
77.97415492337802
 30
0.0
 10
3.539402582671186
 20
78.13460873850587
 30
0.0
 10
3.624491727057176
 20
78.49684538174918
 30
0.0
 10
3.624491727057176
 20
78.76669952537335
 30
0.0
  0
LINE
  5
6F0
330
6A3
100
AcDbEntity
  8
RONDO
100
AcDbLine
 10
3.624491727057176
 20
78.76669952537335
 30
0.0
 11
3.624491727057176
 21
79.07058932675193
 31
0.0
  0
LINE
  5
6F1
330
6A3
100
AcDbEntity
  8
RONDO
100
AcDbLine
 10
3.624491727057176
 20
79.07058932675193
 30
0.0
 11
1.314929236580013
 21
79.07058932675193
 31
0.0
  0
LINE
  5
6F2
330
6A3
100
AcDbEntity
  8
RONDO
100
AcDbLine
 10
1.314929236580013
 20
79.07058932675193
 30
0.0
 11
1.314929236580013
 21
78.76669952537335
 31
0.0
  0
SPLINE
  5
6F3
330
6A3
100
AcDbEntity
  8
RONDO
100
AcDbSpline
210
0.0
220
0.0
230
1.0
 70
     8
 71
     2
 72
     7
 73
     4
 74
     0
 42
0.000000001
 43
0.0000000001
 40
0.0
 40
0.0
 40
0.0
 40
1.0
 40
2.0
 40
2.0
 40
2.0
 10
1.314929236580013
 20
78.76669952537335
 30
0.0
 10
1.314929236580013
 20
78.50170761857123
 30
0.0
 10
1.400018380966031
 20
78.1005730807515
 30
0.0
 10
1.514280946284344
 20
77.93768814721258
 30
0.0
  0
SPLINE
  5
6F4
330
6A3
100
AcDbEntity
  8
RONDO
100
AcDbSpline
210
0.0
220
0.0
230
1.0
 70
     8
 71
     2
 72
     7
 73
     4
 74
     0
 42
0.000000001
 43
0.0000000001
 40
0.0
 40
0.0
 40
0.0
 40
1.0
 40
2.0
 40
2.0
 40
2.0
 10
1.514280946284344
 20
77.93768814721258
 30
0.0
 10
1.655285814124027
 20
77.72861196386412
 30
0.0
 10
2.122060549041492
 20
77.51953578051566
 30
0.0
 10
2.472141600229605
 20
77.51953578051566
 30
0.0
  0
SPLINE
  5
6F5
330
6A3
100
AcDbEntity
  8
RONDO
100
AcDbSpline
210
0.0
220
0.0
230
1.0
 70
     8
 71
     2
 72
     7
 73
     4
 74
     0
 42
0.000000001
 43
0.0000000001
 40
0.0
 40
0.0
 40
0.0
 40
1.0
 40
2.0
 40
2.0
 40
2.0
 10
2.472141600229605
 20
77.51953578051566
 30
0.0
 10
2.817360414595697
 20
77.51953578051566
 30
0.0
 10
3.306015215212426
 20
77.74806091115235
 30
0.0
 10
3.44458896464107
 20
77.97415492337802
 30
0.0
  0
SPLINE
  5
6F6
330
6A3
100
AcDbEntity
  8
RONDO
100
AcDbSpline
210
0.0
220
0.0
230
1.0
 70
     8
 71
     2
 72
     7
 73
     4
 74
     0
 42
0.000000001
 43
0.0000000001
 40
0.0
 40
0.0
 40
0.0
 40
1.0
 40
2.0
 40
2.0
 40
2.0
 10
3.731460937142429
 20
77.71159413498691
 30
0.0
 10
3.539402582671186
 20
77.42229104407451
 30
0.0
 10
2.904880677392725
 20
77.10381453222976
 30
0.0
 10
2.467279363407584
 20
77.10381453222976
 30
0.0
  0
SPLINE
  5
6F7
330
6A3
100
AcDbEntity
  8
RONDO
100
AcDbSpline
210
0.0
220
0.0
230
1.0
 70
     8
 71
     2
 72
     7
 73
     4
 74
     0
 42
0.000000001
 43
0.0000000001
 40
0.0
 40
0.0
 40
0.0
 40
1.0
 40
2.0
 40
2.0
 40
2.0
 10
3.969710541423239
 20
78.78614847266158
 30
0.0
 10
3.969710541423239
 20
78.36313386914262
 30
0.0
 10
3.84329238404976
 20
77.88177242375891
 30
0.0
 10
3.731460937142429
 20
77.71159413498691
 30
0.0
  0
LINE
  5
6F8
330
6A3
100
AcDbEntity
  8
RONDO
100
AcDbLine
 10
3.969710541423239
 20
79.46929274616062
 30
0.0
 11
3.969710541423239
 21
78.78614847266158
 31
0.0
  0
LINE
  5
6F9
330
6A3
100
AcDbEntity
  8
RONDO
100
AcDbLine
 10
0.96971042221395
 20
79.46929274616062
 30
0.0
 11
3.969710541423239
 21
79.46929274616062
 31
0.0
  0
LINE
  5
6FA
330
6A3
100
AcDbEntity
  8
RONDO
100
AcDbLine
 10
0.96971042221395
 20
78.77885511742849
 30
0.0
 11
0.96971042221395
 21
79.46929274616062
 31
0.0
  0
SPLINE
  5
6FB
330
6A3
100
AcDbEntity
  8
RONDO
100
AcDbSpline
210
0.0
220
0.0
230
1.0
 70
     8
 71
     2
 72
     7
 73
     4
 74
     0
 42
0.000000001
 43
0.0000000001
 40
0.0
 40
0.0
 40
0.0
 40
1.0
 40
2.0
 40
2.0
 40
2.0
 10
1.210391144905798
 20
77.71645637180895
 30
0.0
 10
1.066955158655076
 20
77.94498150244564
 30
0.0
 10
0.96971042221395
 20
78.41418735577417
 30
0.0
 10
0.96971042221395
 20
78.77885511742849
 30
0.0
  0
SPLINE
  5
6FC
330
6A3
100
AcDbEntity
  8
RONDO
100
AcDbSpline
210
0.0
220
0.0
230
1.0
 70
     8
 71
     2
 72
     7
 73
     4
 74
     0
 42
0.000000001
 43
0.0000000001
 40
0.0
 40
0.0
 40
0.0
 40
1.0
 40
2.0
 40
2.0
 40
2.0
 10
2.467279363407584
 20
77.10381453222976
 30
0.0
 10
2.056420351943728
 20
77.10381453222976
 30
0.0
 10
1.395156144143953
 20
77.43687775454069
 30
0.0
 10
1.210391144905798
 20
77.71645637180895
 30
0.0
  0
SPLINE
  5
6FD
330
6A3
100
AcDbEntity
  8
RONDO
100
AcDbSpline
210
0.0
220
0.0
230
1.0
 70
     8
 71
     2
 72
     7
 73
     4
 74
     0
 42
0.000000001
 43
0.0000000001
 40
0.0
 40
0.0
 40
0.0
 40
1.0
 40
2.0
 40
2.0
 40
2.0
 10
3.522384753793971
 20
86.43201587534653
 30
0.0
 10
3.578300477247609
 20
86.51710501973253
 30
0.0
 10
3.624491727057176
 20
86.74319903195817
 30
0.0
 10
3.624491727057176
 20
86.90851508390812
 30
0.0
  0
LINE
  5
6FE
330
6A3
100
AcDbEntity
  8
RONDO
100
AcDbLine
 10
3.624491727057176
 20
86.90851508390812
 30
0.0
 11
3.624491727057176
 21
87.3047873849058
 31
0.0
  0
LINE
  5
6FF
330
6A3
100
AcDbEntity
  8
RONDO
100
AcDbLine
 10
3.624491727057176
 20
87.3047873849058
 30
0.0
 11
2.496452784339879
 21
87.3047873849058
 31
0.0
  0
LINE
  5
700
330
6A3
100
AcDbEntity
  8
RONDO
100
AcDbLine
 10
2.496452784339879
 20
87.3047873849058
 30
0.0
 11
2.496452784339879
 21
86.95470633371767
 31
0.0
  0
SPLINE
  5
701
330
6A3
100
AcDbEntity
  8
RONDO
100
AcDbSpline
210
0.0
220
0.0
230
1.0
 70
     8
 71
     2
 72
     7
 73
     4
 74
     0
 42
0.000000001
 43
0.0000000001
 40
0.0
 40
0.0
 40
0.0
 40
1.0
 40
2.0
 40
2.0
 40
2.0
 10
2.496452784339879
 20
86.95470633371767
 30
0.0
 10
2.496452784339879
 20
86.78209692653462
 30
0.0
 10
2.557230744615623
 20
86.50738054608842
 30
0.0
 10
2.652044362645739
 20
86.4125669280583
 30
0.0
  0
SPLINE
  5
702
330
6A3
100
AcDbEntity
  8
RONDO
100
AcDbSpline
210
0.0
220
0.0
230
1.0
 70
     8
 71
     2
 72
     7
 73
     4
 74
     0
 42
0.000000001
 43
0.0000000001
 40
0.0
 40
0.0
 40
0.0
 40
1.0
 40
2.0
 40
2.0
 40
2.0
 10
2.652044362645739
 20
86.4125669280583
 30
0.0
 10
2.734702388620718
 20
86.32504666526125
 30
0.0
 10
2.96808975607945
 20
86.2423886392863
 30
0.0
 10
3.123681334385281
 20
86.2423886392863
 30
0.0
  0
SPLINE
  5
703
330
6A3
100
AcDbEntity
  8
RONDO
100
AcDbSpline
210
0.0
220
0.0
230
1.0
 70
     8
 71
     2
 72
     7
 73
     4
 74
     0
 42
0.000000001
 43
0.0000000001
 40
0.0
 40
0.0
 40
0.0
 40
1.0
 40
2.0
 40
2.0
 40
2.0
 10
3.123681334385281
 20
86.2423886392863
 30
0.0
 10
3.254961728580809
 20
86.2423886392863
 30
0.0
 10
3.456744556696179
 20
86.33477113890538
 30
0.0
 10
3.522384753793971
 20
86.43201587534653
 30
0.0
  0
LINE
  5
704
330
6A3
100
AcDbEntity
  8
RONDO
100
AcDbLine
 10
2.275221008936313
 20
86.44903370422369
 30
0.0
 11
0.96971042221395
 21
85.38177272178215
 31
0.0
  0
SPLINE
  5
705
330
6A3
100
AcDbEntity
  8
RONDO
100
AcDbSpline
210
0.0
220
0.0
230
1.0
 70
     8
 71
     2
 72
     7
 73
     4
 74
     0
 42
0.000000001
 43
0.0000000001
 40
0.0
 40
0.0
 40
0.0
 40
1.0
 40
2.0
 40
2.0
 40
2.0
 10
3.155285873728644
 20
85.82666739100039
 30
0.0
 10
2.827084888239795
 20
85.82666739100039
 30
0.0
 10
2.382190219021566
 20
86.16216173172237
 30
0.0
 10
2.275221008936313
 20
86.44903370422369
 30
0.0
  0
SPLINE
  5
706
330
6A3
100
AcDbEntity
  8
RONDO
100
AcDbSpline
210
0.0
220
0.0
230
1.0
 70
     8
 71
     2
 72
     7
 73
     4
 74
     0
 42
0.000000001
 43
0.0000000001
 40
0.0
 40
0.0
 40
0.0
 40
1.0
 40
2.0
 40
2.0
 40
2.0
 10
3.811687844706369
 20
86.1670239685444
 30
0.0
 10
3.709580871443165
 20
86.00900127182754
 30
0.0
 10
3.391104359598415
 20
85.82666739100039
 30
0.0
 10
3.155285873728644
 20
85.82666739100039
 30
0.0
  0
SPLINE
  5
707
330
6A3
100
AcDbEntity
  8
RONDO
100
AcDbSpline
210
0.0
220
0.0
230
1.0
 70
     8
 71
     2
 72
     7
 73
     4
 74
     0
 42
0.000000001
 43
0.0000000001
 40
0.0
 40
0.0
 40
0.0
 40
1.0
 40
2.0
 40
2.0
 40
2.0
 10
3.969710541423211
 20
86.93039514960739
 30
0.0
 10
3.969710541423211
 20
86.67269659803833
 30
0.0
 10
3.913794817969574
 20
86.32504666526125
 30
0.0
 10
3.811687844706369
 20
86.1670239685444
 30
0.0
  0
LINE
  5
708
330
6A3
100
AcDbEntity
  8
RONDO
100
AcDbLine
 10
3.969710541423211
 20
87.70349080431449
 30
0.0
 11
3.969710541423211
 21
86.93039514960739
 31
0.0
  0
LINE
  5
709
330
6A3
100
AcDbEntity
  8
RONDO
100
AcDbLine
 10
0.9697104222139216
 20
87.70349080431444
 30
0.0
 11
3.969710541423211
 21
87.70349080431449
 31
0.0
  0
LINE
  5
70A
330
6A3
100
AcDbEntity
  8
RONDO
100
AcDbLine
 10
0.96971042221395
 20
87.30478738490578
 30
0.0
 11
0.9697104222139216
 21
87.70349080431444
 31
0.0
  0
LINE
  5
70B
330
6A3
100
AcDbEntity
  8
RONDO
100
AcDbLine
 10
2.163389562028982
 20
87.30478738490578
 30
0.0
 11
0.96971042221395
 21
87.30478738490578
 31
0.0
  0
LINE
  5
70C
330
6A3
100
AcDbEntity
  8
RONDO
100
AcDbLine
 10
2.163389562028982
 20
86.84773712363242
 30
0.0
 11
2.163389562028982
 21
87.30478738490578
 31
0.0
  0
LINE
  5
70D
330
6A3
100
AcDbEntity
  8
RONDO
100
AcDbLine
 10
0.96971042221395
 20
85.89960094333125
 30
0.0
 11
2.163389562028982
 21
86.84773712363242
 31
0.0
  0
LINE
  5
70E
330
6A3
100
AcDbEntity
  8
RONDO
100
AcDbLine
 10
0.96971042221395
 20
85.38177272178215
 30
0.0
 11
0.96971042221395
 21
85.89960094333125
 31
0.0
  0
SPLINE
  5
70F
330
6A3
100
AcDbEntity
  8
RONDO
100
AcDbSpline
210
0.0
220
0.0
230
1.0
 70
     8
 71
     2
 72
     7
 73
     4
 74
     0
 42
0.000000001
 43
0.0000000001
 40
0.0
 40
0.0
 40
0.0
 40
1.0
 40
2.0
 40
2.0
 40
2.0
 10
3.376517649132239
 20
83.32261542764095
 30
0.0
 10
3.532109227438098
 20
83.44174022978135
 30
0.0
 10
3.687700805743901
 20
83.77723457050327
 30
0.0
 10
3.687700805743901
 20
83.98631075385173
 30
0.0
  0
SPLINE
  5
710
330
6A3
100
AcDbEntity
  8
RONDO
100
AcDbSpline
210
0.0
220
0.0
230
1.0
 70
     8
 71
     2
 72
     7
 73
     4
 74
     0
 42
0.000000001
 43
0.0000000001
 40
0.0
 40
0.0
 40
0.0
 40
1.0
 40
2.0
 40
2.0
 40
2.0
 10
3.687700805743901
 20
83.98631075385173
 30
0.0
 10
3.687700805743901
 20
84.20268029243329
 30
0.0
 10
3.536971464260119
 20
84.52845015951115
 30
0.0
 10
3.376517649132239
 20
84.65243719847359
 30
0.0
  0
SPLINE
  5
711
330
6A3
100
AcDbEntity
  8
RONDO
100
AcDbSpline
210
0.0
220
0.0
230
1.0
 70
     8
 71
     2
 72
     7
 73
     4
 74
     0
 42
0.000000001
 43
0.0000000001
 40
0.0
 40
0.0
 40
0.0
 40
1.0
 40
2.0
 40
2.0
 40
2.0
 10
3.376517649132239
 20
84.65243719847359
 30
0.0
 10
3.223357189237447
 20
84.77156200061399
 30
0.0
 10
2.761444691142031
 20
84.89798015798745
 30
0.0
 10
2.469710481818594
 20
84.89798015798745
 30
0.0
  0
SPLINE
  5
712
330
6A3
100
AcDbEntity
  8
RONDO
100
AcDbSpline
210
0.0
220
0.0
230
1.0
 70
     8
 71
     2
 72
     7
 73
     4
 74
     0
 42
0.000000001
 43
0.0000000001
 40
0.0
 40
0.0
 40
0.0
 40
1.0
 40
2.0
 40
2.0
 40
2.0
 10
2.469710481818594
 20
84.89798015798745
 30
0.0
 10
1.878948707938633
 20
84.89798015798745
 30
0.0
 10
1.251720157893259
 20
84.40203200213764
 30
0.0
 10
1.251720157893259
 20
83.98631075385173
 30
0.0
  0
SPLINE
  5
713
330
6A3
100
AcDbEntity
  8
RONDO
100
AcDbSpline
210
0.0
220
0.0
230
1.0
 70
     8
 71
     2
 72
     7
 73
     4
 74
     0
 42
0.000000001
 43
0.0000000001
 40
0.0
 40
0.0
 40
0.0
 40
1.0
 40
2.0
 40
2.0
 40
2.0
 10
1.251720157893259
 20
83.98631075385173
 30
0.0
 10
1.251720157893259
 20
83.57058950556586
 30
0.0
 10
1.878948707938633
 20
83.07707246812706
 30
0.0
 10
2.469710481818594
 20
83.07707246812706
 30
0.0
  0
SPLINE
  5
714
330
6A3
100
AcDbEntity
  8
RONDO
100
AcDbSpline
210
0.0
220
0.0
230
1.0
 70
     8
 71
     2
 72
     7
 73
     4
 74
     0
 42
0.000000001
 43
0.0000000001
 40
0.0
 40
0.0
 40
0.0
 40
1.0
 40
2.0
 40
2.0
 40
2.0
 10
2.469710481818594
 20
83.07707246812706
 30
0.0
 10
2.76630692796408
 20
83.07707246812706
 30
0.0
 10
3.225788307648485
 20
83.20592174391157
 30
0.0
 10
3.376517649132239
 20
83.32261542764095
 30
0.0
  0
SPLINE
  5
715
330
6A3
100
AcDbEntity
  8
RONDO
100
AcDbSpline
210
0.0
220
0.0
230
1.0
 70
     8
 71
     2
 72
     7
 73
     4
 74
     0
 42
0.000000001
 43
0.0000000001
 40
0.0
 40
0.0
 40
0.0
 40
1.0
 40
2.0
 40
2.0
 40
2.0
 10
4.032919620109964
 20
83.98874187226278
 30
0.0
 10
4.032919620109993
 20
83.68242095247316
 30
0.0
 10
3.818981199939457
 20
83.1913350334454
 30
0.0
 10
3.626922845468214
 20
83.02115674467339
 30
0.0
  0
SPLINE
  5
716
330
6A3
100
AcDbEntity
  8
RONDO
100
AcDbSpline
210
0.0
220
0.0
230
1.0
 70
     8
 71
     2
 72
     7
 73
     4
 74
     0
 42
0.000000001
 43
0.0000000001
 40
0.0
 40
0.0
 40
0.0
 40
1.0
 40
2.0
 40
2.0
 40
2.0
 10
3.626922845468214
 20
84.95389588144112
 30
0.0
 10
3.826274555172545
 20
84.77885535584707
 30
0.0
 10
4.032919620109964
 20
84.29020055523031
 30
0.0
 10
4.032919620109964
 20
83.98874187226278
 30
0.0
  0
SPLINE
  5
717
330
6A3
100
AcDbEntity
  8
RONDO
100
AcDbSpline
210
0.0
220
0.0
230
1.0
 70
     8
 71
     2
 72
     7
 73
     4
 74
     0
 42
0.000000001
 43
0.0000000001
 40
0.0
 40
0.0
 40
0.0
 40
1.0
 40
2.0
 40
2.0
 40
2.0
 10
2.469710481818594
 20
85.31370140627336
 30
0.0
 10
2.84653383552802
 20
85.31370140627336
 30
0.0
 10
3.420277780530767
 20
85.12650528862417
 30
0.0
 10
3.626922845468214
 20
84.95389588144112
 30
0.0
  0
SPLINE
  5
718
330
6A3
100
AcDbEntity
  8
RONDO
100
AcDbSpline
210
0.0
220
0.0
230
1.0
 70
     8
 71
     2
 72
     7
 73
     4
 74
     0
 42
0.000000001
 43
0.0000000001
 40
0.0
 40
0.0
 40
0.0
 40
1.0
 40
2.0
 40
2.0
 40
2.0
 10
1.314929236580013
 20
84.95632699985216
 30
0.0
 10
1.514280946284344
 20
85.12893640703518
 30
0.0
 10
2.100180483342256
 20
85.31370140627336
 30
0.0
 10
2.469710481818594
 20
85.31370140627336
 30
0.0
  0
SPLINE
  5
719
330
6A3
100
AcDbEntity
  8
RONDO
100
AcDbSpline
210
0.0
220
0.0
230
1.0
 70
     8
 71
     2
 72
     7
 73
     4
 74
     0
 42
0.000000001
 43
0.0000000001
 40
0.0
 40
0.0
 40
0.0
 40
1.0
 40
2.0
 40
2.0
 40
2.0
 10
0.9065013435271964
 20
83.98874187226278
 30
0.0
 10
0.9065013435271964
 20
84.29263167364135
 30
0.0
 10
1.113146408464643
 20
84.77885535584707
 30
0.0
 10
1.314929236580013
 20
84.95632699985216
 30
0.0
  0
SPLINE
  5
71A
330
6A3
100
AcDbEntity
  8
RONDO
100
AcDbSpline
210
0.0
220
0.0
230
1.0
 70
     8
 71
     2
 72
     7
 73
     4
 74
     0
 42
0.000000001
 43
0.0000000001
 40
0.0
 40
0.0
 40
0.0
 40
1.0
 40
2.0
 40
2.0
 40
2.0
 10
1.314929236580013
 20
83.02115674467339
 30
0.0
 10
1.105853053231527
 20
83.20592174391157
 30
0.0
 10
0.9065013435271964
 20
83.6945765445283
 30
0.0
 10
0.9065013435271964
 20
83.98874187226278
 30
0.0
  0
SPLINE
  5
71B
330
6A3
100
AcDbEntity
  8
RONDO
100
AcDbSpline
210
0.0
220
0.0
230
1.0
 70
     8
 71
     2
 72
     7
 73
     4
 74
     0
 42
0.000000001
 43
0.0000000001
 40
0.0
 40
0.0
 40
0.0
 40
1.0
 40
2.0
 40
2.0
 40
2.0
 10
2.469710481818594
 20
82.66135121984115
 30
0.0
 10
2.105042720164306
 20
82.66135121984115
 30
0.0
 10
1.514280946284344
 20
82.84611621907933
 30
0.0
 10
1.314929236580013
 20
83.02115674467339
 30
0.0
  0
SPLINE
  5
71C
330
6A3
100
AcDbEntity
  8
RONDO
100
AcDbSpline
210
0.0
220
0.0
230
1.0
 70
     8
 71
     2
 72
     7
 73
     4
 74
     0
 42
0.000000001
 43
0.0000000001
 40
0.0
 40
0.0
 40
0.0
 40
1.0
 40
2.0
 40
2.0
 40
2.0
 10
3.626922845468214
 20
83.02115674467339
 30
0.0
 10
3.427571135763855
 20
82.85097845590138
 30
0.0
 10
2.84410271711701
 20
82.66135121984115
 30
0.0
 10
2.469710481818594
 20
82.66135121984115
 30
0.0
  0
LINE
  5
71D
330
6A3
100
AcDbEntity
  8
RONDO
100
AcDbLine
 10
3.969710541423239
 20
80.07707234891777
 30
0.0
 11
0.96971042221395
 21
80.07707234891777
 31
0.0
  0
LINE
  5
71E
330
6A3
100
AcDbEntity
  8
RONDO
100
AcDbLine
 10
3.969710541423239
 20
80.44903346580511
 30
0.0
 11
3.969710541423239
 21
80.07707234891777
 31
0.0
  0
LINE
  5
71F
330
6A3
100
AcDbEntity
  8
RONDO
100
AcDbLine
 10
1.594507853848284
 20
80.44903346580511
 30
0.0
 11
3.969710541423239
 21
80.44903346580511
 31
0.0
  0
LINE
  5
720
330
6A3
100
AcDbEntity
  8
RONDO
100
AcDbLine
 10
3.969710541423239
 20
81.65729931608636
 30
0.0
 11
1.594507853848284
 21
80.44903346580511
 31
0.0
  0
LINE
  5
721
330
6A3
100
AcDbEntity
  8
RONDO
100
AcDbLine
 10
3.969710541423239
 20
82.22374990585601
 30
0.0
 11
3.969710541423239
 21
81.65729931608636
 31
0.0
  0
LINE
  5
722
330
6A3
100
AcDbEntity
  8
RONDO
100
AcDbLine
 10
0.96971042221395
 20
82.22374990585601
 30
0.0
 11
3.969710541423239
 21
82.22374990585601
 31
0.0
  0
LINE
  5
723
330
6A3
100
AcDbEntity
  8
RONDO
100
AcDbLine
 10
0.96971042221395
 20
81.85178878896866
 30
0.0
 11
0.96971042221395
 21
82.22374990585601
 31
0.0
  0
LINE
  5
724
330
6A3
100
AcDbEntity
  8
RONDO
100
AcDbLine
 10
3.556420411548373
 20
81.85178878896866
 30
0.0
 11
0.96971042221395
 21
81.85178878896866
 31
0.0
  0
LINE
  5
725
330
6A3
100
AcDbEntity
  8
RONDO
100
AcDbLine
 10
0.96971042221395
 20
80.52439813654704
 30
0.0
 11
3.556420411548373
 21
81.85178878896866
 31
0.0
  0
LINE
  5
726
330
6A3
100
AcDbEntity
  8
RONDO
100
AcDbLine
 10
0.96971042221395
 20
80.07707234891777
 30
0.0
 11
0.96971042221395
 21
80.52439813654704
 31
0.0
  0
SPLINE
  5
727
330
6A3
100
AcDbEntity
  8
RONDO
100
AcDbSpline
210
0.0
220
0.0
230
1.0
 70
     8
 71
     2
 72
     7
 73
     4
 74
     0
 42
0.000000001
 43
0.0000000001
 40
0.0
 40
0.0
 40
0.0
 40
1.0
 40
2.0
 40
2.0
 40
2.0
 10
-2.292238991482093
 20
83.86718644728967
 30
0.0
 10
-2.404070438389396
 20
83.71888822421693
 30
0.0
 10
-2.74442701593341
 20
83.55843440908904
 30
0.0
 10
-3.016712277968593
 20
83.55843440908904
 30
0.0
  0
SPLINE
  5
728
330
6A3
100
AcDbEntity
  8
RONDO
100
AcDbSpline
210
0.0
220
0.0
230
1.0
 70
     8
 71
     2
 72
     7
 73
     4
 74
     0
 42
0.000000001
 43
0.0000000001
 40
0.0
 40
0.0
 40
0.0
 40
1.0
 40
2.0
 40
2.0
 40
2.0
 10
-2.1050428738329
 20
84.56248631284385
 30
0.0
 10
-2.1050428738329
 20
84.33153006379612
 30
0.0
 10
-2.180407544574762
 20
84.01305355195139
 30
0.0
 10
-2.292238991482093
 20
83.86718644728967
 30
0.0
  0
SPLINE
  5
729
330
6A3
100
AcDbEntity
  8
RONDO
100
AcDbSpline
210
0.0
220
0.0
230
1.0
 70
     8
 71
     2
 72
     7
 73
     4
 74
     0
 42
0.000000001
 43
0.0000000001
 40
0.0
 40
0.0
 40
0.0
 40
1.0
 40
2.0
 40
2.0
 40
2.0
 10
-2.122060702710086
 20
84.83477157487905
 30
0.0
 10
-2.112336229065959
 20
84.76183802254817
 30
0.0
 10
-2.1050428738329
 20
84.62083315470854
 30
0.0
 10
-2.1050428738329
 20
84.56248631284385
 30
0.0
  0
LINE
  5
72A
330
6A3
100
AcDbEntity
  8
RONDO
100
AcDbLine
 10
-1.322222745481667
 20
84.83477157487905
 30
0.0
 11
-2.122060702710086
 21
84.83477157487905
 31
0.0
  0
LINE
  5
72B
330
6A3
100
AcDbEntity
  8
RONDO
100
AcDbLine
 10
-1.322222745481667
 20
83.57545223796623
 30
0.0
 11
-1.322222745481667
 21
84.83477157487905
 31
0.0
  0
LINE
  5
72C
330
6A3
100
AcDbEntity
  8
RONDO
100
AcDbLine
 10
-0.9697105758825159
 20
83.57545223796623
 30
0.0
 11
-1.322222745481667
 21
83.57545223796623
 31
0.0
  0
LINE
  5
72D
330
6A3
100
AcDbEntity
  8
RONDO
100
AcDbLine
 10
-0.9697105758825159
 20
85.22131940223259
 30
0.0
 11
-0.9697105758825159
 21
83.57545223796623
 31
0.0
  0
LINE
  5
72E
330
6A3
100
AcDbEntity
  8
RONDO
100
AcDbLine
 10
-2.515901885296699
 20
85.22131940223259
 30
0.0
 11
-0.9697105758825159
 21
85.22131940223259
 31
0.0
  0
SPLINE
  5
72F
330
6A3
100
AcDbEntity
  8
RONDO
100
AcDbSpline
210
0.0
220
0.0
230
1.0
 70
     8
 71
     2
 72
     7
 73
     4
 74
     0
 42
0.000000001
 43
0.0000000001
 40
0.0
 40
0.0
 40
0.0
 40
1.0
 40
2.0
 40
2.0
 40
2.0
 10
-2.442968332965875
 20
84.62812650994161
 30
0.0
 10
-2.442968332965875
 20
84.79344256189156
 30
0.0
 10
-2.494021819597463
 20
85.12164354738041
 30
0.0
 10
-2.515901885296699
 20
85.22131940223259
 30
0.0
  0
SPLINE
  5
730
330
6A3
100
AcDbEntity
  8
RONDO
100
AcDbSpline
210
0.0
220
0.0
230
1.0
 70
     8
 71
     2
 72
     7
 73
     4
 74
     0
 42
0.000000001
 43
0.0000000001
 40
0.0
 40
0.0
 40
0.0
 40
1.0
 40
2.0
 40
2.0
 40
2.0
 10
-2.581542082394491
 20
84.13704059091385
 30
0.0
 10
-2.5061774116526
 20
84.22212973529985
 30
0.0
 10
-2.442968332965875
 20
84.47496605004682
 30
0.0
 10
-2.442968332965875
 20
84.62812650994161
 30
0.0
  0
SPLINE
  5
731
330
6A3
100
AcDbEntity
  8
RONDO
100
AcDbSpline
210
0.0
220
0.0
230
1.0
 70
     8
 71
     2
 72
     7
 73
     4
 74
     0
 42
0.000000001
 43
0.0000000001
 40
0.0
 40
0.0
 40
0.0
 40
1.0
 40
2.0
 40
2.0
 40
2.0
 10
-3.014281159557583
 20
83.96686230214184
 30
0.0
 10
-2.853827344429674
 20
83.96686230214184
 30
0.0
 10
-2.649613397903294
 20
84.05438256493885
 30
0.0
 10
-2.581542082394491
 20
84.13704059091385
 30
0.0
  0
SPLINE
  5
732
330
6A3
100
AcDbEntity
  8
RONDO
100
AcDbSpline
210
0.0
220
0.0
230
1.0
 70
     8
 71
     2
 72
     7
 73
     4
 74
     0
 42
0.000000001
 43
0.0000000001
 40
0.0
 40
0.0
 40
0.0
 40
1.0
 40
2.0
 40
2.0
 40
2.0
 10
-3.502935960174312
 20
84.12002276203663
 30
0.0
 10
-3.412984578966273
 20
84.04465809129474
 30
0.0
 10
-3.174734974685463
 20
83.96686230214184
 30
0.0
 10
-3.014281159557583
 20
83.96686230214184
 30
0.0
  0
SPLINE
  5
733
330
6A3
100
AcDbEntity
  8
RONDO
100
AcDbSpline
210
0.0
220
0.0
230
1.0
 70
     8
 71
     2
 72
     7
 73
     4
 74
     0
 42
0.000000001
 43
0.0000000001
 40
0.0
 40
0.0
 40
0.0
 40
1.0
 40
2.0
 40
2.0
 40
2.0
 10
-3.685269841001485
 20
84.55276183919972
 30
0.0
 10
-3.685269841001485
 20
84.43120591864831
 30
0.0
 10
-3.597749578204428
 20
84.20268078801163
 30
0.0
 10
-3.502935960174312
 20
84.12002276203663
 30
0.0
  0
SPLINE
  5
734
330
6A3
100
AcDbEntity
  8
RONDO
100
AcDbSpline
210
0.0
220
0.0
230
1.0
 70
     8
 71
     2
 72
     7
 73
     4
 74
     0
 42
0.000000001
 43
0.0000000001
 40
0.0
 40
0.0
 40
0.0
 40
1.0
 40
2.0
 40
2.0
 40
2.0
 10
-3.597749578204428
 20
84.9927942715959
 30
0.0
 10
-3.639078591191918
 20
84.87366946945551
 30
0.0
 10
-3.685269841001485
 20
84.67674887816215
 30
0.0
 10
-3.685269841001485
 20
84.55276183919972
 30
0.0
  0
SPLINE
  5
735
330
6A3
100
AcDbEntity
  8
RONDO
100
AcDbSpline
210
0.0
220
0.0
230
1.0
 70
     8
 71
     2
 72
     7
 73
     4
 74
     0
 42
0.000000001
 43
0.0000000001
 40
0.0
 40
0.0
 40
0.0
 40
1.0
 40
2.0
 40
2.0
 40
2.0
 10
-3.437295763076548
 20
85.3161330202627
 30
0.0
 10
-3.471331420830949
 20
85.26994177045315
 30
0.0
 10
-3.558851683627977
 20
85.09733236327013
 30
0.0
 10
-3.597749578204428
 20
84.9927942715959
 30
0.0
  0
LINE
  5
736
330
6A3
100
AcDbEntity
  8
RONDO
100
AcDbLine
 10
-3.437295763076548
 20
85.34530644119504
 30
0.0
 11
-3.437295763076548
 21
85.3161330202627
 31
0.0
  0
LINE
  5
737
330
6A3
100
AcDbEntity
  8
RONDO
100
AcDbLine
 10
-3.862741485006552
 20
85.34530644119504
 30
0.0
 11
-3.437295763076548
 21
85.34530644119504
 31
0.0
  0
SPLINE
  5
738
330
6A3
100
AcDbEntity
  8
RONDO
100
AcDbSpline
210
0.0
220
0.0
230
1.0
 70
     8
 71
     2
 72
     7
 73
     4
 74
     0
 42
0.000000001
 43
0.0000000001
 40
0.0
 40
0.0
 40
0.0
 40
1.0
 40
2.0
 40
2.0
 40
2.0
 10
-4.032919773778559
 20
84.5600551944328
 30
0.0
 10
-4.032919773778559
 20
84.77399361460333
 30
0.0
 10
-3.938106155748442
 20
85.19214598130025
 30
0.0
 10
-3.862741485006552
 20
85.34530644119504
 30
0.0
  0
SPLINE
  5
739
330
6A3
100
AcDbEntity
  8
RONDO
100
AcDbSpline
210
0.0
220
0.0
230
1.0
 70
     8
 71
     2
 72
     7
 73
     4
 74
     0
 42
0.000000001
 43
0.0000000001
 40
0.0
 40
0.0
 40
0.0
 40
1.0
 40
2.0
 40
2.0
 40
2.0
 10
-3.738754446044112
 20
83.82342631589116
 30
0.0
 10
-3.874897077061689
 20
83.94984447326462
 30
0.0
 10
-4.032919773778559
 20
84.32666782697408
 30
0.0
 10
-4.032919773778559
 20
84.5600551944328
 30
0.0
  0
SPLINE
  5
73A
330
6A3
100
AcDbEntity
  8
RONDO
100
AcDbSpline
210
0.0
220
0.0
230
1.0
 70
     8
 71
     2
 72
     7
 73
     4
 74
     0
 42
0.000000001
 43
0.0000000001
 40
0.0
 40
0.0
 40
0.0
 40
1.0
 40
2.0
 40
2.0
 40
2.0
 10
-3.016712277968593
 20
83.55843440908904
 30
0.0
 10
-3.233081816550139
 20
83.55843440908904
 30
0.0
 10
-3.602611815026506
 20
83.69700815851766
 30
0.0
 10
-3.738754446044112
 20
83.82342631589116
 30
0.0
  0
LINE
  5
73B
330
6A3
100
AcDbEntity
  8
RONDO
100
AcDbLine
 10
-0.9697105758825159
 20
74.51953615688473
 30
0.0
 11
-3.969710695091805
 21
74.5195361568847
 31
0.0
  0
LINE
  5
73C
330
6A3
100
AcDbEntity
  8
RONDO
100
AcDbLine
 10
-0.9697105758825159
 20
75.07383115459922
 30
0.0
 11
-0.9697105758825159
 21
74.51953615688473
 31
0.0
  0
LINE
  5
73D
330
6A3
100
AcDbEntity
  8
RONDO
100
AcDbLine
 10
-2.639888924259167
 20
75.79830444108575
 30
0.0
 11
-0.9697105758825159
 21
75.07383115459922
 31
0.0
  0
LINE
  5
73E
330
6A3
100
AcDbEntity
  8
RONDO
100
AcDbLine
 10
-0.9697105758825159
 20
76.54708891168255
 30
0.0
 11
-2.639888924259167
 21
75.79830444108575
 31
0.0
  0
LINE
  5
73F
330
6A3
100
AcDbEntity
  8
RONDO
100
AcDbLine
 10
-0.9697105758825159
 20
77.09165943575294
 30
0.0
 11
-0.9697105758825159
 21
76.54708891168255
 31
0.0
  0
LINE
  5
740
330
6A3
100
AcDbEntity
  8
RONDO
100
AcDbLine
 10
-3.969710695091805
 20
77.09165943575294
 30
0.0
 11
-0.9697105758825159
 21
77.09165943575294
 31
0.0
  0
LINE
  5
741
330
6A3
100
AcDbEntity
  8
RONDO
100
AcDbLine
 10
-3.969710695091805
 20
76.71969831886556
 30
0.0
 11
-3.969710695091805
 21
77.09165943575294
 31
0.0
  0
LINE
  5
742
330
6A3
100
AcDbEntity
  8
RONDO
100
AcDbLine
 10
-1.385431824168421
 20
76.71969831886556
 30
0.0
 11
-3.969710695091805
 21
76.71969831886556
 31
0.0
  0
LINE
  5
743
330
6A3
100
AcDbEntity
  8
RONDO
100
AcDbLine
 10
-3.143130435342072
 20
75.94417154574748
 30
0.0
 11
-1.385431824168421
 21
76.71969831886556
 31
0.0
  0
LINE
  5
744
330
6A3
100
AcDbEntity
  8
RONDO
100
AcDbLine
 10
-3.143130435342072
 20
75.70105970464459
 30
0.0
 11
-3.143130435342072
 21
75.94417154574748
 31
0.0
  0
LINE
  5
745
330
6A3
100
AcDbEntity
  8
RONDO
100
AcDbLine
 10
-1.385431824168421
 20
74.91823957629342
 30
0.0
 11
-3.143130435342072
 21
75.70105970464459
 31
0.0
  0
LINE
  5
746
330
6A3
100
AcDbEntity
  8
RONDO
100
AcDbLine
 10
-3.969710695091805
 20
74.91823957629335
 30
0.0
 11
-1.385431824168421
 21
74.91823957629342
 31
0.0
  0
LINE
  5
747
330
6A3
100
AcDbEntity
  8
RONDO
100
AcDbLine
 10
-3.969710695091805
 20
74.5195361568847
 30
0.0
 11
-3.969710695091805
 21
74.91823957629335
 31
0.0
  0
LINE
  5
748
330
6A3
100
AcDbEntity
  8
RONDO
100
AcDbLine
 10
-19.00000000000023
 20
7.5
 30
0.0
 11
-19.00000000000023
 21
76.0
 31
0.0
  0
LINE
  5
749
330
6A3
100
AcDbEntity
  8
RONDO
100
AcDbLine
 10
-11.0000000000002
 20
29.5
 30
0.0
 11
-11.0000000000002
 21
7.5
 31
0.0
  0
LINE
  5
74A
330
6A3
100
AcDbEntity
  8
RONDO
100
AcDbLine
 10
-8.000000000000198
 20
29.5
 30
0.0
 11
-11.0000000000002
 21
29.5
 31
0.0
  0
LINE
  5
74B
330
6A3
100
AcDbEntity
  8
RONDO
100
AcDbLine
 10
10.9999999999998
 20
29.5
 30
0.0
 11
7.999999999999801
 21
29.5
 31
0.0
  0
LINE
  5
74C
330
6A3
100
AcDbEntity
  8
RONDO
100
AcDbLine
 10
10.9999999999998
 20
7.5
 30
0.0
 11
10.9999999999998
 21
29.5
 31
0.0
  0
LINE
  5
74D
330
6A3
100
AcDbEntity
  8
RONDO
100
AcDbLine
 10
18.9999999999998
 20
76.0
 30
0.0
 11
18.9999999999998
 21
7.5
 31
0.0
  0
LINE
  5
74E
330
6A3
100
AcDbEntity
  8
RONDO
100
AcDbLine
 10
9.499999999999801
 20
45.0
 30
0.0
 11
9.499999999999801
 21
75.00000000000003
 31
0.0
  0
LINE
  5
74F
330
6A3
100
AcDbEntity
  8
RONDO
100
AcDbLine
 10
-5.500000000000198
 20
41.0
 30
0.0
 11
5.499999999999801
 21
41.0
 31
0.0
  0
LINE
  5
750
330
6A3
100
AcDbEntity
  8
RONDO
100
AcDbLine
 10
-9.500000000000198
 20
75.00000000000003
 30
0.0
 11
-9.500000000000198
 21
45.00000000000002
 31
0.0
  0
LINE
  5
751
330
6A3
100
AcDbEntity
  8
RONDO
100
AcDbLine
 10
-11.0000000000002
 20
7.5
 30
0.0
 11
-19.00000000000023
 21
7.5
 31
0.0
  0
LINE
  5
752
330
6A3
100
AcDbEntity
  8
RONDO
100
AcDbLine
 10
-16.99999999999994
 20
0.0
 30
0.0
 11
-12.99999999999994
 21
0.0
 31
0.0
  0
LINE
  5
753
330
6A3
100
AcDbEntity
  8
RONDO
100
AcDbLine
 10
-11.0000000000002
 20
7.274541714700461
 30
0.0
 11
-11.00000000000003
 21
1.985092303282641
 31
0.0
  0
LINE
  5
754
330
6A3
100
AcDbEntity
  8
RONDO
100
AcDbLine
 10
-19.00000000000021
 20
7.27454171470049
 30
0.0
 11
-11.0000000000002
 21
7.274541714700461
 31
0.0
  0
LINE
  5
755
330
6A3
100
AcDbEntity
  8
RONDO
100
AcDbLine
 10
-19.00000000000021
 20
7.27454171470049
 30
0.0
 11
-19.00000000000003
 21
1.985092303282641
 31
0.0
  0
LINE
  5
756
330
6A3
100
AcDbEntity
  8
RONDO
100
AcDbLine
 10
-11.0000000000002
 20
7.274541714700461
 30
0.0
 11
-11.0000000000002
 21
7.5
 31
0.0
  0
LINE
  5
757
330
6A3
100
AcDbEntity
  8
RONDO
100
AcDbLine
 10
-19.00000000000021
 20
7.274541714700461
 30
0.0
 11
-19.00000000000023
 21
7.500000000000014
 31
0.0
  0
LINE
  5
758
330
6A3
100
AcDbEntity
  8
RONDO
100
AcDbLine
 10
-8.000000000000198
 20
28.5
 30
0.0
 11
-8.000000000000198
 21
29.5
 31
0.0
  0
LINE
  5
759
330
6A3
100
AcDbEntity
  8
RONDO
100
AcDbLine
 10
-8.000000000000198
 20
28.5
 30
0.0
 11
7.999999999999801
 21
28.5
 31
0.0
  0
LINE
  5
75A
330
6A3
100
AcDbEntity
  8
RONDO
100
AcDbLine
 10
7.999999999999801
 20
29.5
 30
0.0
 11
7.999999999999801
 21
28.5
 31
0.0
  0
LINE
  5
75B
330
6A3
100
AcDbEntity
  8
RONDO
100
AcDbLine
 10
7.999999999999801
 20
28.21059648969484
 30
0.0
 11
7.999999999999801
 21
28.5
 31
0.0
  0
LINE
  5
75C
330
6A3
100
AcDbEntity
  8
RONDO
100
AcDbLine
 10
7.999999999999801
 20
28.21059648969487
 30
0.0
 11
8.0
 21
23.85912623106031
 31
0.0
  0
LINE
  5
75D
330
6A3
100
AcDbEntity
  8
RONDO
100
AcDbLine
 10
-8.000000000000198
 20
28.21059648969487
 30
0.0
 11
7.999999999999801
 21
28.21059648969487
 31
0.0
  0
LINE
  5
75E
330
6A3
100
AcDbEntity
  8
RONDO
100
AcDbLine
 10
-8.0
 20
23.85912623106031
 30
0.0
 11
-8.000000000000198
 21
28.21059648969487
 31
0.0
  0
LINE
  5
75F
330
6A3
100
AcDbEntity
  8
RONDO
100
AcDbLine
 10
-8.000000000000198
 20
28.5
 30
0.0
 11
-8.000000000000198
 21
28.21059648969484
 31
0.0
  0
LINE
  5
760
330
6A3
100
AcDbEntity
  8
RONDO
100
AcDbLine
 10
18.9999999999998
 20
7.5
 30
0.0
 11
10.9999999999998
 21
7.5
 31
0.0
  0
LINE
  5
761
330
6A3
100
AcDbEntity
  8
RONDO
100
AcDbLine
 10
17.00000000000008
 20
0.0
 30
0.0
 11
13.00000000000008
 21
0.0
 31
0.0
  0
LINE
  5
762
330
6A3
100
AcDbEntity
  8
RONDO
100
AcDbLine
 10
18.9999999999998
 20
7.27454171470049
 30
0.0
 11
19.0
 21
1.985092303282641
 31
0.0
  0
LINE
  5
763
330
6A3
100
AcDbEntity
  8
RONDO
100
AcDbLine
 10
18.9999999999998
 20
7.27454171470049
 30
0.0
 11
10.9999999999998
 21
7.274541714700461
 31
0.0
  0
LINE
  5
764
330
6A3
100
AcDbEntity
  8
RONDO
100
AcDbLine
 10
10.9999999999998
 20
7.274541714700461
 30
0.0
 11
10.99999999999997
 21
1.985092303282641
 31
0.0
  0
LINE
  5
765
330
6A3
100
AcDbEntity
  8
RONDO
100
AcDbLine
 10
10.9999999999998
 20
7.274541714700461
 30
0.0
 11
10.9999999999998
 21
7.5
 31
0.0
  0
LINE
  5
766
330
6A3
100
AcDbEntity
  8
RONDO
100
AcDbLine
 10
18.9999999999998
 20
7.274541714700461
 30
0.0
 11
18.9999999999998
 21
7.500000000000014
 31
0.0
  0
LINE
  5
767
330
6A3
100
AcDbEntity
  8
RONDO
100
AcDbLine
 10
18.9999999999998
 20
76.0
 30
0.0
 11
10.44184982922331
 21
90.12094778178122
 31
0.0
  0
LINE
  5
768
330
6A3
100
AcDbEntity
  8
RONDO
100
AcDbLine
 10
9.000000000006565
 20
105.5721592277142
 30
0.0
 11
9.000000000007389
 21
106.5488636910857
 31
0.0
  0
LINE
  5
769
330
6A3
100
AcDbEntity
  8
RONDO
100
AcDbLine
 10
9.000000000006565
 20
105.5721592277142
 30
0.0
 11
9.000000000006167
 21
105.0014233366119
 31
0.0
  0
LINE
  5
76A
330
6A3
100
AcDbEntity
  8
RONDO
100
AcDbLine
 10
9.000000000000568
 20
94.53777730283517
 30
0.0
 11
9.000000000006167
 21
105.0014233366119
 31
0.0
  0
LINE
  5
76B
330
6A3
100
AcDbEntity
  8
RONDO
100
AcDbLine
 10
9.000000000000568
 20
94.53777730283517
 30
0.0
 11
8.999999999999971
 21
92.50000000000003
 31
0.0
  0
LINE
  5
76C
330
6A3
100
AcDbEntity
  8
RONDO
100
AcDbLine
 10
8.999999999999971
 20
92.50000000000003
 30
0.0
 11
10.44184982922331
 21
90.12094778178122
 31
0.0
  0
LINE
  5
76D
330
6A3
100
AcDbEntity
  8
RONDO
100
AcDbLine
 10
-10.44184982922374
 20
90.12094778178122
 30
0.0
 11
10.44184982922331
 21
90.12094778178122
 31
0.0
  0
LINE
  5
76E
330
6A3
100
AcDbEntity
  8
RONDO
100
AcDbLine
 10
7.499999999999801
 20
72.72814778178122
 30
0.0
 11
-7.500000000000198
 21
72.72814778178122
 31
0.0
  0
LINE
  5
76F
330
6A3
100
AcDbEntity
  8
RONDO
100
AcDbLine
 10
-5.499999999992866
 20
57.14523153343347
 30
0.0
 11
5.500000000007133
 21
57.14523153343347
 31
0.0
  0
LINE
  5
770
330
6A3
100
AcDbEntity
  8
RONDO
100
AcDbLine
 10
-7.499999999994258
 20
58.77307230571924
 30
0.0
 11
7.500000000005741
 21
58.77307230571924
 31
0.0
  0
LINE
  5
771
330
6A3
100
AcDbEntity
  8
RONDO
100
AcDbLine
 10
-8.999999999999459
 20
94.53777730283517
 30
0.0
 11
9.000000000000568
 21
94.53777730283517
 31
0.0
  0
LINE
  5
772
330
6A3
100
AcDbEntity
  8
RONDO
100
AcDbLine
 10
9.000000000006167
 20
105.0014233366119
 30
0.0
 11
-8.999999999993832
 21
105.0014233366119
 31
0.0
  0
LINE
  5
773
330
6A3
100
AcDbEntity
  8
RONDO
100
AcDbLine
 10
-8.999999999993463
 20
105.5721592277142
 30
0.0
 11
9.000000000006565
 21
105.5721592277142
 31
0.0
  0
LINE
  5
774
330
6A3
100
AcDbEntity
  8
RONDO
100
AcDbLine
 10
-7.499999999999459
 20
68.31131826072726
 30
0.0
 11
7.50000000000054
 21
68.31131826072726
 31
0.0
  0
LINE
  5
775
330
6A3
100
AcDbEntity
  8
RONDO
100
AcDbLine
 10
7.500000000005343
 20
59.36507785735958
 30
0.0
 11
-7.499999999994656
 21
59.36507785735958
 31
0.0
  0
LINE
  5
776
330
6A3
100
AcDbEntity
  8
RONDO
100
AcDbLine
 10
-6.99999999999207
 20
107.2
 30
0.0
 11
7.000000000007929
 21
107.2
 31
0.0
  0
LINE
  5
777
330
6A3
100
AcDbEntity
  8
RONDO
100
AcDbLine
 10
-10.44184982922374
 20
90.12094778178122
 30
0.0
 11
-19.00000000000023
 21
76.0
 31
0.0
  0
LINE
  5
778
330
6A3
100
AcDbEntity
  8
RONDO
100
AcDbLine
 10
-9.000000000000028
 20
92.49999999999998
 30
0.0
 11
-8.999999999999459
 21
94.53777730283514
 31
0.0
  0
LINE
  5
779
330
6A3
100
AcDbEntity
  8
RONDO
100
AcDbLine
 10
-8.999999999993832
 20
105.0014233366119
 30
0.0
 11
-8.999999999999459
 21
94.53777730283517
 31
0.0
  0
LINE
  5
77A
330
6A3
100
AcDbEntity
  8
RONDO
100
AcDbLine
 10
-8.999999999993832
 20
105.0014233366119
 30
0.0
 11
-8.999999999993463
 21
105.5721592277142
 31
0.0
  0
LINE
  5
77B
330
6A3
100
AcDbEntity
  8
RONDO
100
AcDbLine
 10
-8.999999999992638
 20
106.5488636910857
 30
0.0
 11
-8.999999999993463
 21
105.5721592277142
 31
0.0
  0
LINE
  5
77C
330
6A3
100
AcDbEntity
  8
RONDO
100
AcDbLine
 10
-10.44184982922374
 20
90.12094778178122
 30
0.0
 11
-9.000000000000028
 21
92.50000000000003
 31
0.0
  0
LINE
  5
77D
330
6A3
100
AcDbEntity
  8
RONDO
100
AcDbLine
 10
-7.500000000000198
 20
75.00000000000003
 30
0.0
 11
-7.500000000000198
 21
72.72814778178122
 31
0.0
  0
LINE
  5
77E
330
6A3
100
AcDbEntity
  8
RONDO
100
AcDbLine
 10
7.499999999999801
 20
72.72814778178122
 30
0.0
 11
7.499999999999801
 21
75.00000000000003
 31
0.0
  0
LINE
  5
77F
330
6A3
100
AcDbEntity
  8
RONDO
100
AcDbLine
 10
-7.499999999994258
 20
58.77307230571924
 30
0.0
 11
-7.499999999993434
 21
57.79636784234779
 31
0.0
  0
LINE
  5
780
330
6A3
100
AcDbEntity
  8
RONDO
100
AcDbLine
 10
-7.499999999994258
 20
58.77307230571924
 30
0.0
 11
-7.499999999994656
 21
59.36507785735958
 31
0.0
  0
LINE
  5
781
330
6A3
100
AcDbEntity
  8
RONDO
100
AcDbLine
 10
-7.499999999999459
 20
68.31131826072726
 30
0.0
 11
-7.499999999994656
 21
59.36507785735958
 31
0.0
  0
LINE
  5
782
330
6A3
100
AcDbEntity
  8
RONDO
100
AcDbLine
 10
-7.499999999999459
 20
68.31131826072726
 30
0.0
 11
-7.500000000000198
 21
72.72814778178122
 31
0.0
  0
LINE
  5
783
330
6A3
100
AcDbEntity
  8
RONDO
100
AcDbLine
 10
7.500000000006565
 20
57.79636784234779
 30
0.0
 11
7.500000000005741
 21
58.77307230571924
 31
0.0
  0
LINE
  5
784
330
6A3
100
AcDbEntity
  8
RONDO
100
AcDbLine
 10
7.499999999999801
 20
72.72814778178122
 30
0.0
 11
7.50000000000054
 21
68.31131826072726
 31
0.0
  0
LINE
  5
785
330
6A3
100
AcDbEntity
  8
RONDO
100
AcDbLine
 10
7.500000000005343
 20
59.36507785735958
 30
0.0
 11
7.50000000000054
 21
68.31131826072726
 31
0.0
  0
LINE
  5
786
330
6A3
100
AcDbEntity
  8
RONDO
100
AcDbLine
 10
7.500000000005343
 20
59.36507785735958
 30
0.0
 11
7.500000000005741
 21
58.77307230571924
 31
0.0
  0
ARC
  5
787
330
6A3
100
AcDbEntity
  8
RONDO
100
AcDbCircle
 10
8.499999999999801
 20
75.00000000000003
 30
0.0
 40
1.000000000000001
100
AcDbArc
 50
0.0
 51
180.0
  0
ARC
  5
788
330
6A3
100
AcDbEntity
  8
RONDO
100
AcDbCircle
 10
-8.500000000000198
 20
75.00000000000003
 30
0.0
 40
1.0
100
AcDbArc
 50
0.0
 51
180.0
  0
ARC
  5
789
330
6A3
100
AcDbEntity
  8
RONDO
100
AcDbCircle
 10
5.499999999999801
 20
45.0
 30
0.0
 40
4.0
100
AcDbArc
 50
270.0
 51
0.0
  0
ARC
  5
78A
330
6A3
100
AcDbEntity
  8
RONDO
100
AcDbCircle
 10
-5.500000000000198
 20
45.00000000000002
 30
0.0
 40
4.000000000000004
100
AcDbArc
 50
180.0
 51
270.0
  0
ARC
  5
78B
330
6A3
100
AcDbEntity
  8
RONDO
100
AcDbCircle
 10
-14.85000000000022
 20
46.50000000000003
 30
0.0
 40
1.999999999999997
100
AcDbArc
 50
0.0
 51
180.0
  0
LINE
  5
78C
330
6A3
100
AcDbEntity
  8
RONDO
100
AcDbLine
 10
-12.85000000000022
 20
46.50000000000003
 30
0.0
 11
-12.85000000000019
 21
10.50000000000003
 31
0.0
  0
ARC
  5
78D
330
6A3
100
AcDbEntity
  8
RONDO
100
AcDbCircle
 10
-14.85000000000019
 20
10.5
 30
0.0
 40
1.999999999999997
100
AcDbArc
 50
180.0
 51
0.0
  0
LINE
  5
78E
330
6A3
100
AcDbEntity
  8
RONDO
100
AcDbLine
 10
-16.85000000000019
 20
10.50000000000003
 30
0.0
 11
-16.85000000000022
 21
46.50000000000003
 31
0.0
  0
LINE
  5
78F
330
6A3
100
AcDbEntity
  8
RONDO
100
AcDbLine
 10
-12.85000000000019
 20
10.50000000000003
 30
0.0
 11
-13.55000000000041
 21
10.50000000000003
 31
0.0
  0
LINE
  5
790
330
6A3
100
AcDbEntity
  8
RONDO
100
AcDbLine
 10
-13.55000000000041
 20
46.50000000000003
 30
0.0
 11
-12.85000000000022
 21
46.50000000000003
 31
0.0
  0
LINE
  5
791
330
6A3
100
AcDbEntity
  8
RONDO
100
AcDbLine
 10
-13.55000000000041
 20
46.50000000000003
 30
0.0
 11
-13.55000000000041
 21
10.50000000000003
 31
0.0
  0
LINE
  5
792
330
6A3
100
AcDbEntity
  8
RONDO
100
AcDbLine
 10
-16.1500000000004
 20
46.50000000000003
 30
0.0
 11
-16.85000000000022
 21
46.50000000000003
 31
0.0
  0
ARC
  5
793
330
6A3
100
AcDbEntity
  8
RONDO
100
AcDbCircle
 10
-14.85000000000042
 20
46.50000000000003
 30
0.0
 40
1.299999999999996
100
AcDbArc
 50
0.0
 51
180.0
  0
LINE
  5
794
330
6A3
100
AcDbEntity
  8
RONDO
100
AcDbLine
 10
-16.1500000000004
 20
10.50000000000003
 30
0.0
 11
-16.85000000000019
 21
10.50000000000003
 31
0.0
  0
LINE
  5
795
330
6A3
100
AcDbEntity
  8
RONDO
100
AcDbLine
 10
-16.1500000000004
 20
10.50000000000003
 30
0.0
 11
-16.1500000000004
 21
46.50000000000003
 31
0.0
  0
ARC
  5
796
330
6A3
100
AcDbEntity
  8
RONDO
100
AcDbCircle
 10
-14.85000000000042
 20
10.5
 30
0.0
 40
1.299999999999996
100
AcDbArc
 50
180.0
 51
0.0
  0
LINE
  5
797
330
6A3
100
AcDbEntity
  8
RONDO
100
AcDbLine
 10
12.84999999999977
 20
10.50000000000003
 30
0.0
 11
12.84999999999977
 21
46.50000000000003
 31
0.0
  0
ARC
  5
798
330
6A3
100
AcDbEntity
  8
RONDO
100
AcDbCircle
 10
14.84999999999979
 20
46.50000000000003
 30
0.0
 40
1.999999999999997
100
AcDbArc
 50
0.0
 51
180.0
  0
LINE
  5
799
330
6A3
100
AcDbEntity
  8
RONDO
100
AcDbLine
 10
16.84999999999976
 20
46.50000000000003
 30
0.0
 11
16.84999999999976
 21
10.50000000000003
 31
0.0
  0
ARC
  5
79A
330
6A3
100
AcDbEntity
  8
RONDO
100
AcDbCircle
 10
14.84999999999977
 20
10.5
 30
0.0
 40
1.999999999999997
100
AcDbArc
 50
180.0
 51
0.0
  0
LINE
  5
79B
330
6A3
100
AcDbEntity
  8
RONDO
100
AcDbLine
 10
12.84999999999977
 20
10.50000000000003
 30
0.0
 11
13.54999999999958
 21
10.50000000000003
 31
0.0
  0
LINE
  5
79C
330
6A3
100
AcDbEntity
  8
RONDO
100
AcDbLine
 10
13.54999999999958
 20
46.50000000000003
 30
0.0
 11
13.54999999999958
 21
10.50000000000003
 31
0.0
  0
LINE
  5
79D
330
6A3
100
AcDbEntity
  8
RONDO
100
AcDbLine
 10
13.54999999999958
 20
46.50000000000003
 30
0.0
 11
12.84999999999977
 21
46.50000000000003
 31
0.0
  0
ARC
  5
79E
330
6A3
100
AcDbEntity
  8
RONDO
100
AcDbCircle
 10
14.84999999999956
 20
46.50000000000003
 30
0.0
 40
1.299999999999996
100
AcDbArc
 50
0.0
 51
180.0
  0
LINE
  5
79F
330
6A3
100
AcDbEntity
  8
RONDO
100
AcDbLine
 10
16.14999999999958
 20
46.50000000000003
 30
0.0
 11
16.84999999999979
 21
46.50000000000003
 31
0.0
  0
LINE
  5
7A0
330
6A3
100
AcDbEntity
  8
RONDO
100
AcDbLine
 10
16.14999999999958
 20
10.50000000000003
 30
0.0
 11
16.14999999999958
 21
46.50000000000003
 31
0.0
  0
LINE
  5
7A1
330
6A3
100
AcDbEntity
  8
RONDO
100
AcDbLine
 10
16.14999999999955
 20
10.50000000000003
 30
0.0
 11
16.84999999999976
 21
10.50000000000003
 31
0.0
  0
ARC
  5
7A2
330
6A3
100
AcDbEntity
  8
RONDO
100
AcDbCircle
 10
14.84999999999956
 20
10.5
 30
0.0
 40
1.299999999999996
100
AcDbArc
 50
180.0
 51
0.0
  0
SPLINE
  5
7A3
330
6A3
100
AcDbEntity
  8
RONDO
100
AcDbSpline
210
0.0
220
0.0
230
1.0
 70
     8
 71
     3
 72
     8
 73
     4
 74
     0
 42
0.000000001
 43
0.0000000001
 40
0.2208856889124775
 40
0.2208856889124775
 40
0.2208856889124775
 40
0.2208856889124775
 40
0.2920599254916864
 40
0.2920599254916864
 40
0.2920599254916864
 40
0.2920599254916864
 10
-0.7532954149378384
 20
7.016579786115414
 30
0.0
 10
-0.5053931042667159
 20
6.952258410814437
 30
0.0
 10
-0.2485861721052629
 20
6.921160230538077
 30
0.0
 10
-0.0107592312912459
 20
6.920249371537551
 30
0.0
  0
SPLINE
  5
7A4
330
6A3
100
AcDbEntity
  8
RONDO
100
AcDbSpline
210
0.0
220
0.0
230
1.0
 70
     8
 71
     3
 72
    16
 73
    12
 74
     0
 42
0.000000001
 43
0.0000000001
 40
-1.737569424960229
 40
-1.737569424960229
 40
-1.737569424960229
 40
-1.737569424960229
 40
-1.669744184281429
 40
-1.669744184281429
 40
-1.589306848037183
 40
-1.589306848037183
 40
-1.471015387503985
 40
-1.471015387503985
 40
-1.351815646831997
 40
-1.351815646831997
 40
-1.343337265403533
 40
-1.343337265403533
 40
-1.343337265403533
 40
-1.343337265403533
 10
0.7532954149371279
 20
7.016579786115414
 30
0.0
 10
0.972131487068907
 20
7.073358769394189
 30
0.0
 10
1.183845729438218
 20
7.154695432473332
 30
0.0
 10
1.622257310270583
 20
7.382770869217807
 30
0.0
 10
1.842448798078692
 20
7.537832863348995
 30
0.0
 10
2.328278220825751
 20
7.988045979481654
 30
0.0
 10
2.56181440275813
 20
8.310402873832941
 30
0.0
 10
2.892098047583829
 20
9.02965742666916
 30
0.0
 10
2.98451612137984
 20
9.419997862088408
 30
0.0
 10
2.9991899167413
 20
9.845237420012551
 30
0.0
 10
2.999764718700276
 20
9.87346950640267
 30
0.0
 10
2.999941262121808
 20
9.901687647123566
 30
0.0
  0
SPLINE
  5
7A5
330
6A3
100
AcDbEntity
  8
RONDO
100
AcDbSpline
210
0.0
220
0.0
230
1.0
 70
     8
 71
     3
 72
    14
 73
    10
 74
     0
 42
0.000000001
 43
0.0000000001
 40
-0.3944070255958685
 40
-0.3944070255958685
 40
-0.3944070255958685
 40
-0.3944070255958685
 40
-0.3290048095337253
 40
-0.3290048095337253
 40
-0.2164289758335859
 40
-0.2164289758335859
 40
-0.096254321664271
 40
-0.096254321664271
 40
0.0
 40
0.0
 40
0.0
 40
0.0
 10
-2.999940242307189
 20
9.901687709913005
 30
0.0
 10
-2.998582269946979
 20
9.684706342932699
 30
0.0
 10
-2.973685635738462
 20
9.468026452311121
 30
0.0
 10
-2.842208907311402
 20
8.889670362286864
 30
0.0
 10
-2.691148191454942
 20
8.542667408385938
 30
0.0
 10
-2.254669877858162
 20
7.901418370740401
 30
0.0
 10
-1.965255194488861
 20
7.618754677913216
 30
0.0
 10
-1.35948263129697
 20
7.227040907280255
 30
0.0
 10
-1.063856864938571
 20
7.097157742047684
 30
0.0
 10
-0.75329541493781
 20
7.016579786115414
 30
0.0
  0
SPLINE
  5
7A6
330
6A3
100
AcDbEntity
  8
RONDO
100
AcDbSpline
210
0.0
220
0.0
230
1.0
 70
     8
 71
     3
 72
     8
 73
     4
 74
     0
 42
0.000000001
 43
0.0000000001
 40
0.2942091373885164
 40
0.2942091373885164
 40
0.2942091373885164
 40
0.2942091373885164
 40
0.3653833739677252
 40
0.3653833739677252
 40
0.3653833739677252
 40
0.3653833739677252
 10
0.0107592312905638
 20
6.920249371537551
 30
0.0
 10
0.2485861721045808
 20
6.921160230538077
 30
0.0
 10
0.5053931042660338
 20
6.952258410814437
 30
0.0
 10
0.7532954149371563
 20
7.016579786115414
 30
0.0
  0
ELLIPSE
  5
7A7
330
6A3
100
AcDbEntity
  8
RONDO
100
AcDbEllipse
 10
-0.0000000000004832
 20
9.901518988920997
 30
0.0
 11
0.00000000000011
 21
3.019310905094638
 31
0.0
210
0.0
220
0.0
230
1.0
 40
0.9936042011897306
 41
3.141592653589722
 42
3.40685604738765
  0
SPLINE
  5
7A8
330
6A3
100
AcDbEntity
  8
RONDO
100
AcDbSpline
210
0.0
220
0.0
230
1.0
 70
     8
 71
     3
 72
     8
 73
     4
 74
     0
 42
0.000000001
 43
0.0000000001
 40
0.1140206292341487
 40
0.1140206292341487
 40
0.1140206292341487
 40
0.1140206292341487
 40
0.1190044532569552
 40
0.1190044532569552
 40
0.1190044532569552
 40
0.1190044532569552
 10
0.8359295627899143
 20
7.001745240643728
 30
0.0
 10
0.8198275591532535
 20
6.997072546232118
 30
0.0
 10
0.8033102718407008
 20
6.992411862649007
 30
0.0
 10
0.7864903753211934
 20
6.987813065659494
 30
0.0
  0
SPLINE
  5
7A9
330
6A3
100
AcDbEntity
  8
RONDO
100
AcDbSpline
210
0.0
220
0.0
230
1.0
 70
     8
 71
     3
 72
    40
 73
    36
 74
     0
 42
0.000000001
 43
0.0000000001
 40
-1.720371892898747
 40
-1.720371892898747
 40
-1.720371892898747
 40
-1.720371892898747
 40
-1.659989870327482
 40
-1.659989870327482
 40
-1.590235847105883
 40
-1.590235847105883
 40
-1.471468673376165
 40
-1.471468673376165
 40
-1.352278891942405
 40
-1.352278891942405
 40
-1.234934794828859
 40
-1.234934794828859
 40
-1.122239291749222
 40
-1.122239291749222
 40
-1.002868785909049
 40
-1.002868785909049
 40
-0.917281498414357
 40
-0.917281498414357
 40
-0.8495972312908069
 40
-0.8495972312908069
 40
-0.7787748200219263
 40
-0.7787748200219263
 40
-0.684706786338583
 40
-0.684706786338583
 40
-0.5659484067397013
 40
-0.5659484067397013
 40
-0.4466043482875416
 40
-0.4466043482875416
 40
-0.3311228479880842
 40
-0.3311228479880842
 40
-0.2182989437889185
 40
-0.2182989437889185
 40
-0.0989933438819455
 40
-0.0989933438819455
 40
0.0
 40
0.0
 40
0.0
 40
0.0
 10
-0.8359295627911365
 20
7.001745240643728
 30
0.0
 10
-1.029226321377223
 20
7.057837703000643
 30
0.0
 10
-1.21638554639594
 20
7.133241427368631
 30
0.0
 10
-1.600427862937152
 20
7.334903433882629
 30
0.0
 10
-1.793013108846565
 20
7.466556523116054
 30
0.0
 10
-2.267171220859921
 20
7.878856223937219
 30
0.0
 10
-2.51154046078858
 20
8.195150558156015
 30
0.0
 10
-2.863992543414866
 20
8.905544633279887
 30
0.0
 10
-2.968103646595807
 20
9.29289584630402
 30
0.0
 10
-3.01898628257291
 20
10.07950600826371
 30
0.0
 10
-2.967682336974178
 20
10.47094760487053
 30
0.0
 10
-2.722750489094892
 20
11.19747229121961
 30
0.0
 10
-2.537001763473767
 20
11.52776387044724
 30
0.0
 10
-2.039027203480372
 20
12.11968574713848
 30
0.0
 10
-1.724873741886852
 20
12.37025020867607
 30
0.0
 10
-1.117311052584312
 20
12.68267917452705
 30
0.0
 10
-0.846286578480516
 20
12.77628718077203
 30
0.0
 10
-0.3445808330284592
 20
12.87279200153118
 30
0.0
 10
-0.1189313442301056
 20
12.89025782948704
 30
0.0
 10
0.3424641255309098
 20
12.87384520489365
 30
0.0
 10
0.5765651254542093
 20
12.83760653888906
 30
0.0
 10
1.106055156664098
 20
12.69017652340183
 30
0.0
 10
1.393063339101843
 20
12.559200259212
 30
0.0
 10
1.984692050407005
 20
12.16773754773788
 30
0.0
 10
2.268376440748681
 20
11.88611307727734
 30
0.0
 10
2.711208098601559
 20
11.2275087911207
 30
0.0
 10
2.865363291510448
 20
10.85656761485596
 30
0.0
 10
3.017559652140704
 20
10.08889337236817
 30
0.0
 10
3.019080071890812
 20
9.70050318070605
 30
0.0
 10
2.876926583117523
 20
8.95307462466151
 30
0.0
 10
2.737852301758522
 20
8.600188484661927
 30
0.0
 10
2.325032116968657
 20
7.945915323533142
 30
0.0
 10
2.048095019443366
 20
7.655128327488654
 30
0.0
 10
1.452389957944575
 20
7.237326614210758
 30
0.0
 10
1.152829979923609
 20
7.093706041481695
 30
0.0
 10
0.8359295627899427
 20
7.001745240643728
 30
0.0
  0
SPLINE
  5
7AA
330
6A3
100
AcDbEntity
  8
RONDO
100
AcDbSpline
210
0.0
220
0.0
230
1.0
 70
     8
 71
     3
 72
     8
 73
     4
 74
     0
 42
0.000000001
 43
0.0000000001
 40
0.0429184586021039
 40
0.0429184586021039
 40
0.0429184586021039
 40
0.0429184586021039
 40
0.0479022826249104
 40
0.0479022826249104
 40
0.0479022826249104
 40
0.0479022826249104
 10
-0.7864903753223871
 20
6.987813065659494
 30
0.0
 10
-0.8033102840186074
 20
6.992411865325863
 30
0.0
 10
-0.8198275107932886
 20
6.997072532274358
 30
0.0
 10
-0.835929562791108
 20
7.001745240643728
 30
0.0
  0
ELLIPSE
  5
7AB
330
6A3
100
AcDbEntity
  8
RONDO
100
AcDbEllipse
 10
-0.0000000000004832
 20
9.901518988920997
 30
0.0
 11
0.00000000000011
 21
3.019310905094638
 31
0.0
210
0.0
220
0.0
230
1.0
 40
0.9936042011897306
 41
2.876329259791798
 42
3.141592653589722
  0
LINE
  5
7AC
330
6A3
100
AcDbEntity
  8
RONDO
100
AcDbLine
 10
7.999999999999403
 20
7.001745240643728
 30
0.0
 11
0.8359295627899143
 21
7.001745240643728
 31
0.0
  0
LINE
  5
7AD
330
6A3
100
AcDbEntity
  8
RONDO
100
AcDbLine
 10
-0.835929562791108
 20
7.001745240643728
 30
0.0
 11
-8.000000000000596
 21
7.001745240643728
 31
0.0
  0
LINE
  5
7AE
330
6A3
100
AcDbEntity
  8
RONDO
100
AcDbLine
 10
0.7864903753211934
 20
6.987813065659494
 30
0.0
 11
7.999999999999403
 21
6.987813065659494
 31
0.0
  0
LINE
  5
7AF
330
6A3
100
AcDbEntity
  8
RONDO
100
AcDbLine
 10
7.999999999999403
 20
6.987813065659494
 30
0.0
 11
7.999999999999403
 21
7.001745240643742
 31
0.0
  0
LINE
  5
7B0
330
6A3
100
AcDbEntity
  8
RONDO
100
AcDbLine
 10
-8.000000000000596
 20
6.987813065659494
 30
0.0
 11
-0.7864903753223871
 21
6.987813065659494
 31
0.0
  0
LINE
  5
7B1
330
6A3
100
AcDbEntity
  8
RONDO
100
AcDbLine
 10
-8.000000000000596
 20
6.987813065659494
 30
0.0
 11
-8.000000000000653
 21
5.088681245177014
 31
0.0
  0
LINE
  5
7B2
330
6A3
100
AcDbEntity
  8
RONDO
100
AcDbLine
 10
-6.000000000000738
 20
3.103588941894358
 30
0.0
 11
5.999999999999261
 21
3.103588941894358
 31
0.0
  0
LINE
  5
7B3
330
6A3
100
AcDbEntity
  8
RONDO
100
AcDbLine
 10
7.999999999999346
 20
5.088681245177014
 30
0.0
 11
7.999999999999403
 21
6.987813065659494
 31
0.0
  0
LINE
  5
7B4
330
6A3
100
AcDbEntity
  8
RONDO
100
AcDbLine
 10
-6.000000000000483
 20
2.999999999999985
 30
0.0
 11
5.999999999999516
 21
2.999999999999985
 31
0.0
  0
LINE
  5
7B5
330
6A3
100
AcDbEntity
  8
RONDO
100
AcDbLine
 10
-8.000000000000596
 20
7.001745240643742
 30
0.0
 11
-8.000000000000596
 21
6.987813065659494
 31
0.0
  0
LINE
  5
7B6
330
6A3
100
AcDbEntity
  8
RONDO
100
AcDbLine
 10
7.999999999999232
 20
19.86893113983407
 30
0.0
 11
7.999999999999403
 21
7.001745240643728
 31
0.0
  0
ELLIPSE
  5
7B7
330
6A3
100
AcDbEntity
  8
RONDO
100
AcDbEllipse
 10
-0.000000000001279
 20
30.81643524664761
 30
0.0
 11
13.6694661565941
 21
-0.0000000000241318
 31
0.0
210
0.0
220
0.0
230
1.0
 40
0.9876883405951378
 41
4.087205607872355
 42
5.337572352900599
  0
LINE
  5
7B8
330
6A3
100
AcDbEntity
  8
RONDO
100
AcDbLine
 10
-8.000000000000767
 20
19.86893113983407
 30
0.0
 11
-8.000000000000596
 21
7.001745240643728
 31
0.0
  0
ELLIPSE
  5
7B9
330
6A3
100
AcDbEntity
  8
RONDO
100
AcDbEllipse
 10
-6.000000000000426
 20
4.985092303282641
 30
0.0
 11
-2.0
 21
0.0
 31
0.0
210
0.0
220
0.0
230
1.0
 40
0.9925461516413223
 41
0.0000000000000728
 42
1.570796326794896
  0
LINE
  5
7BA
330
6A3
100
AcDbEntity
  8
RONDO
100
AcDbLine
 10
-6.000000000000483
 20
2.999999999999985
 30
0.0
 11
-6.000000000000738
 21
3.103588941894358
 31
0.0
  0
ELLIPSE
  5
7BB
330
6A3
100
AcDbEntity
  8
RONDO
100
AcDbEllipse
 10
-6.000000000000653
 20
5.088681245177014
 30
0.0
 11
-2.0
 21
-0.0000000000000026
 31
0.0
210
0.0
220
0.0
230
1.0
 40
0.9925461516413223
 41
0.0
 42
1.570796326794823
  0
LINE
  5
7BC
330
6A3
100
AcDbEntity
  8
RONDO
100
AcDbLine
 10
-8.000000000000653
 20
5.088681245177014
 30
0.0
 11
-8.000000000000426
 21
4.985092303282641
 31
0.0
  0
ELLIPSE
  5
7BD
330
6A3
100
AcDbEntity
  8
RONDO
100
AcDbEllipse
 10
5.999999999999346
 20
5.088681245177014
 30
0.0
 11
1.999999999999994
 21
0.0
 31
0.0
210
0.0
220
0.0
230
1.0
 40
0.9925461516413227
 41
4.712388980384684
 42
6.283185307179658
  0
LINE
  5
7BE
330
6A3
100
AcDbEntity
  8
RONDO
100
AcDbLine
 10
5.999999999999261
 20
3.103588941894358
 30
0.0
 11
5.999999999999516
 21
2.999999999999985
 31
0.0
  0
ELLIPSE
  5
7BF
330
6A3
100
AcDbEntity
  8
RONDO
100
AcDbEllipse
 10
5.999999999999573
 20
4.985092303282641
 30
0.0
 11
2.0
 21
-0.0000000000000041
 31
0.0
210
0.0
220
0.0
230
1.0
 40
0.9925461516413223
 41
4.712388980384611
 42
6.283185307179588
  0
LINE
  5
7C0
330
6A3
100
AcDbEntity
  8
RONDO
100
AcDbLine
 10
7.999999999999573
 20
4.985092303282641
 30
0.0
 11
7.999999999999346
 21
5.088681245177014
 31
0.0
  0
SPLINE
  5
7C1
330
6A3
100
AcDbEntity
  8
RONDO
100
AcDbSpline
210
0.0
220
0.0
230
1.0
 70
    24
 71
     3
 72
    14
 73
    10
 74
     0
 42
0.000000001
 43
0.0000000001
 40
0.0226129659794546
 40
0.0226129659794546
 40
0.0226129659794546
 40
0.0226129659794546
 40
0.0333263811234989
 40
0.0333263811234989
 40
0.072261232771358
 40
0.072261232771358
 40
0.1199767241241525
 40
0.1199767241241525
 40
0.1789845865077495
 40
0.1789845865077495
 40
0.1789845865077495
 40
0.1789845865077495
 10
-8.000000000000142
 20
22.40020860105813
 30
0.0
 10
-8.000000000000142
 20
22.41774320627675
 30
0.0
 10
-8.000000000000142
 20
22.43750827974546
 30
0.0
 10
-8.000000000000113
 20
22.5324308050952
 30
0.0
 10
-8.000000000000085
 20
22.64955385588164
 30
0.0
 10
-8.000000000000028
 20
22.8975811737885
 30
0.0
 10
-8.0
 20
23.07836822982392
 30
0.0
 10
-8.0
 20
23.42883748984795
 30
0.0
 10
-8.0
 20
23.6648549721279
 30
0.0
 10
-8.0
 20
23.85912623106029
 30
0.0
  0
ELLIPSE
  5
7C2
330
6A3
100
AcDbEntity
  8
RONDO
100
AcDbEllipse
 10
-0.0000000000005684
 20
31.19662485984159
 30
0.0
 11
11.97154911999766
 21
-0.0000000000210865
 31
0.0
210
0.0
220
0.0
230
1.0
 40
0.9876883405951376
 41
3.980533654938056
 42
5.444244305834891
  0
SPLINE
  5
7C3
330
6A3
100
AcDbEntity
  8
RONDO
100
AcDbSpline
210
0.0
220
0.0
230
1.0
 70
    24
 71
     3
 72
    14
 73
    10
 74
     0
 42
0.000000001
 43
0.0000000001
 40
0.0226129659794546
 40
0.0226129659794546
 40
0.0226129659794546
 40
0.0226129659794546
 40
0.0333263811234989
 40
0.0333263811234989
 40
0.072261232771358
 40
0.072261232771358
 40
0.1199767241241527
 40
0.1199767241241527
 40
0.1789845865077495
 40
0.1789845865077495
 40
0.1789845865077495
 40
0.1789845865077495
 10
7.999999999999857
 20
22.40020860105813
 30
0.0
 10
7.999999999999857
 20
22.41774320627675
 30
0.0
 10
7.999999999999857
 20
22.43750827974546
 30
0.0
 10
7.999999999999914
 20
22.5324308050952
 30
0.0
 10
7.999999999999914
 20
22.64955385588164
 30
0.0
 10
7.999999999999971
 20
22.8975811737885
 30
0.0
 10
8.0
 20
23.07836822982392
 30
0.0
 10
8.000000000000028
 20
23.42883748984795
 30
0.0
 10
8.000000000000028
 20
23.6648549721279
 30
0.0
 10
8.0
 20
23.85912623106031
 30
0.0
  0
ELLIPSE
  5
7C4
330
6A3
100
AcDbEntity
  8
RONDO
100
AcDbEllipse
 10
-0.0000000000003411
 20
31.31600967620088
 30
0.0
 11
10.99999999999998
 21
-0.0000000000194411
 31
0.0
210
0.0
220
0.0
230
1.0
 40
0.9876883405951378
 41
3.898049038259951
 42
5.526728922513004
  0
SPLINE
  5
7C5
330
6A3
100
AcDbEntity
  8
RONDO
100
AcDbSpline
210
0.0
220
0.0
230
1.0
 70
    28
 71
     2
 72
     6
 73
     3
 74
     0
 42
0.000000001
 43
0.0000000001
 40
0.3638185842193439
 40
0.3638185842193439
 40
0.3638185842193439
 40
0.4835341298628938
 40
0.4835341298628938
 40
0.4835341298628938
 10
-8.000000000000483
 20
21.85318364767636
 30
0.0
 41
1.003283760585491
 10
-8.000000000000312
 20
22.13065292573026
 30
0.0
 41
1.003463866954438
 10
-8.000000000000142
 20
22.40020860105811
 30
0.0
 41
1.003406950600995
  0
ELLIPSE
  5
7C6
330
6A3
100
AcDbEntity
  8
RONDO
100
AcDbEllipse
 10
-0.0000000000009095
 20
31.01728401496194
 30
0.0
 11
12.25101813235508
 21
-0.0000000000218026
 31
0.0
210
0.0
220
0.0
230
1.0
 40
0.9876883405951375
 41
4.000840957301932
 42
5.423937003471052
  0
SPLINE
  5
7C7
330
6A3
100
AcDbEntity
  8
RONDO
100
AcDbSpline
210
0.0
220
0.0
230
1.0
 70
    28
 71
     2
 72
     6
 73
     3
 74
     0
 42
0.000000001
 43
0.0000000001
 40
0.3638185842193434
 40
0.3638185842193434
 40
0.3638185842193434
 40
0.4835341298628934
 40
0.4835341298628934
 40
0.4835341298628934
 10
7.999999999999516
 20
21.85318364767636
 30
0.0
 41
1.003283760585495
 10
7.999999999999686
 20
22.13065292573027
 30
0.0
 41
1.003463866954442
 10
7.999999999999858
 20
22.40020860105811
 30
0.0
 41
1.003406950600998
  0
SPLINE
  5
7C8
330
6A3
100
AcDbEntity
  8
RONDO
100
AcDbSpline
210
0.0
220
0.0
230
1.0
 70
    24
 71
     3
 72
    14
 73
    10
 74
     0
 42
0.000000001
 43
0.0000000001
 40
0.3053300915600991
 40
0.3053300915600991
 40
0.3053300915600991
 40
0.3053300915600991
 40
0.3608472155816011
 40
0.3608472155816011
 40
0.4384517957348408
 40
0.4384517957348408
 40
0.5057756775228187
 40
0.5057756775228187
 40
0.5252984010157983
 40
0.5252984010157983
 40
0.5252984010157983
 40
0.5252984010157983
 10
-8.000000000000767
 20
19.86893113983407
 30
0.0
 10
-8.000000000000767
 20
20.06902598303877
 30
0.0
 10
-8.000000000000767
 20
20.27774666802961
 30
0.0
 10
-8.000000000000738
 20
20.71371661636098
 30
0.0
 10
-8.00000000000071
 20
21.00529711228505
 30
0.0
 10
-8.000000000000653
 20
21.41780320309314
 30
0.0
 10
-8.000000000000596
 20
21.6193360968346
 30
0.0
 10
-8.000000000000511
 20
21.78547713807001
 30
0.0
 10
-8.000000000000483
 20
21.82150477114356
 30
0.0
 10
-8.000000000000483
 20
21.85318364767636
 30
0.0
  0
SPLINE
  5
7C9
330
6A3
100
AcDbEntity
  8
RONDO
100
AcDbSpline
210
0.0
220
0.0
230
1.0
 70
    24
 71
     3
 72
    14
 73
    10
 74
     0
 42
0.000000001
 43
0.0000000001
 40
0.3053300915600992
 40
0.3053300915600992
 40
0.3053300915600992
 40
0.3053300915600992
 40
0.3608472155816012
 40
0.3608472155816012
 40
0.438451795734841
 40
0.438451795734841
 40
0.5057756775228187
 40
0.5057756775228187
 40
0.5252984010157981
 40
0.5252984010157981
 40
0.5252984010157981
 40
0.5252984010157981
 10
7.999999999999232
 20
19.86893113983407
 30
0.0
 10
7.999999999999232
 20
20.06902598303877
 30
0.0
 10
7.999999999999232
 20
20.27774666802961
 30
0.0
 10
7.999999999999261
 20
20.71371661636098
 30
0.0
 10
7.999999999999289
 20
21.00529711228505
 30
0.0
 10
7.999999999999346
 20
21.41780320309314
 30
0.0
 10
7.999999999999403
 20
21.6193360968346
 30
0.0
 10
7.999999999999488
 20
21.78547713807001
 30
0.0
 10
7.999999999999516
 20
21.82150477114356
 30
0.0
 10
7.999999999999516
 20
21.85318364767636
 30
0.0
  0
ELLIPSE
  5
7CA
330
6A3
100
AcDbEntity
  8
RONDO
100
AcDbEllipse
 10
-2.299999999997226
 20
64.16308845515747
 30
0.0
 11
-0.5000000000000028
 21
0.0000000000000292
 31
0.0
210
0.0
220
0.0
230
1.0
 40
0.4848096202463136
 41
5.777039824101524
 42
6.283185307179853
  0
ELLIPSE
  5
7CB
330
6A3
100
AcDbEntity
  8
RONDO
100
AcDbEllipse
 10
-0.8425503374293157
 20
65.43780265220357
 30
0.0
 11
-0.5000000000000036
 21
-0.0000000000000047
 31
0.0
210
0.0
220
0.0
230
1.0
 40
0.4848096202463259
 41
4.712388980385218
 42
5.777039824100641
  0
ELLIPSE
  5
7CC
330
6A3
100
AcDbEntity
  8
RONDO
100
AcDbEllipse
 10
0.8425503374334937
 20
65.43780265220357
 30
0.0
 11
-0.5000000000000043
 21
0.000000000000054
 31
0.0
210
0.0
220
0.0
230
1.0
 40
0.4848096202463388
 41
3.647738136667918
 42
4.712388980384706
  0
ELLIPSE
  5
7CD
330
6A3
100
AcDbEntity
  8
RONDO
100
AcDbEllipse
 10
2.300000000002768
 20
64.16308845515747
 30
0.0
 11
0.4999999999999973
 21
-0.00000000000002
 31
0.0
210
0.0
220
0.0
230
1.0
 40
0.4848096202463202
 41
0.0
 42
0.5061454830763426
  0
ELLIPSE
  5
7CE
330
6A3
100
AcDbEntity
  8
RONDO
100
AcDbEllipse
 10
-2.299999999997254
 20
98.57828509987976
 30
0.0
 11
-0.500000000000015
 21
-0.0000000000000089
 31
0.0
210
0.0
220
0.0
230
1.0
 40
0.4848096202463399
 41
0.0000000000020932
 42
0.5061454830802195
  0
ELLIPSE
  5
7CF
330
6A3
100
AcDbEntity
  8
RONDO
100
AcDbEllipse
 10
-0.8425503374293725
 20
97.3035709028336
 30
0.0
 11
0.500000000000004
 21
0.0000000000001061
 31
0.0
210
0.0
220
0.0
230
1.0
 40
0.4848096202463388
 41
3.647738136667255
 42
4.712388980384053
  0
ELLIPSE
  5
7D0
330
6A3
100
AcDbEntity
  8
RONDO
100
AcDbEllipse
 10
0.8425503374334653
 20
97.3035709028336
 30
0.0
 11
0.5000000000000049
 21
0.0000000000000028
 31
0.0
210
0.0
220
0.0
230
1.0
 40
0.4848096202463381
 41
4.71238898038419
 42
5.777039824101701
  0
ELLIPSE
  5
7D1
330
6A3
100
AcDbEntity
  8
RONDO
100
AcDbEllipse
 10
2.300000000002711
 20
98.57828509987974
 30
0.0
 11
0.5000000000000026
 21
0.000000000000109
 31
0.0
210
0.0
220
0.0
230
1.0
 40
0.4848096202463236
 41
5.777039824100798
 42
6.283185307179136
  0
LINE
  5
7D2
330
6A3
100
AcDbEntity
  8
RONDO
100
AcDbLine
 10
-2.737309853566983
 20
64.28060863909911
 30
0.0
 11
-1.279860190999073
 21
65.55532283614528
 31
0.0
  0
LINE
  5
7D3
330
6A3
100
AcDbEntity
  8
RONDO
100
AcDbLine
 10
-0.8425503374294578
 20
65.68020746232673
 30
0.0
 11
0.84255033743338
 21
65.68020746232673
 31
0.0
  0
LINE
  5
7D4
330
6A3
100
AcDbEntity
  8
RONDO
100
AcDbLine
 10
1.279860191003137
 20
65.55532283614528
 30
0.0
 11
2.737309853572412
 21
64.28060863909911
 31
0.0
  0
LINE
  5
7D5
330
6A3
100
AcDbEntity
  8
RONDO
100
AcDbLine
 10
2.800000000002768
 20
64.16308845515743
 30
0.0
 11
2.800000000003166
 21
63.45008320919359
 31
0.0
  0
LINE
  5
7D6
330
6A3
100
AcDbEntity
  8
RONDO
100
AcDbLine
 10
-2.799999999996856
 20
63.45008320919359
 30
0.0
 11
-2.799999999997226
 21
64.16308845515743
 31
0.0
  0
LINE
  5
7D7
330
6A3
100
AcDbEntity
  8
RONDO
100
AcDbLine
 10
1.300000000003535
 20
62.72286877882411
 30
0.0
 11
-1.299999999996458
 21
62.72286877882411
 31
0.0
  0
LINE
  5
7D8
330
6A3
100
AcDbEntity
  8
RONDO
100
AcDbLine
 10
-1.299999999996344
 20
63.46629552989256
 30
0.0
 11
1.300000000003677
 21
63.46629552989256
 31
0.0
  0
LINE
  5
7D9
330
6A3
100
AcDbEntity
  8
RONDO
100
AcDbLine
 10
-2.799999999997282
 20
98.57828509987976
 30
0.0
 11
-2.799999999996913
 21
99.29129034584358
 31
0.0
  0
LINE
  5
7DA
330
6A3
100
AcDbEntity
  8
RONDO
100
AcDbLine
 10
-1.27986019099913
 20
97.18605071889193
 30
0.0
 11
-2.73730985356704
 21
98.46076491593803
 31
0.0
  0
LINE
  5
7DB
330
6A3
100
AcDbEntity
  8
RONDO
100
AcDbLine
 10
0.8425503374333231
 20
97.06116609271044
 30
0.0
 11
-0.8425503374295146
 21
97.06116609271044
 31
0.0
  0
LINE
  5
7DC
330
6A3
100
AcDbEntity
  8
RONDO
100
AcDbLine
 10
2.737309853572355
 20
98.46076491593809
 30
0.0
 11
1.279860191003109
 21
97.18605071889193
 31
0.0
  0
LINE
  5
7DD
330
6A3
100
AcDbEntity
  8
RONDO
100
AcDbLine
 10
1.30000000000362
 20
99.27507802514462
 30
0.0
 11
-1.299999999996401
 21
99.27507802514462
 31
0.0
  0
LINE
  5
7DE
330
6A3
100
AcDbEntity
  8
RONDO
100
AcDbLine
 10
-1.299999999996515
 20
100.0185047762131
 30
0.0
 11
1.300000000003507
 21
100.0185047762131
 31
0.0
  0
LINE
  5
7DF
330
6A3
100
AcDbEntity
  8
RONDO
100
AcDbLine
 10
2.800000000003109
 20
99.29129034584358
 30
0.0
 11
2.800000000002711
 21
98.57828509987976
 31
0.0
  0
ELLIPSE
  5
7E0
330
6A3
100
AcDbEntity
  8
RONDO
100
AcDbEllipse
 10
-1.299999999996771
 20
98.54786359477509
 30
0.0
 11
-1.499999999999997
 21
-0.0000000000002495
 31
0.0
210
0.0
220
0.0
230
1.0
 40
0.4848096202463365
 41
4.712388980384324
 42
6.256659478249979
  0
LINE
  5
7E1
330
6A3
100
AcDbEntity
  8
RONDO
100
AcDbLine
 10
-1.299999999996401
 20
99.27507802514462
 30
0.0
 11
-1.299999999996515
 21
100.0185047762131
 31
0.0
  0
ELLIPSE
  5
7E2
330
6A3
100
AcDbEntity
  8
RONDO
100
AcDbEllipse
 10
-1.299999999996884
 20
99.29129034584358
 30
0.0
 11
-1.499999999999997
 21
-0.0000000000000022
 31
0.0
210
0.0
220
0.0
230
1.0
 40
0.4848096202463347
 41
4.712388980384167
 42
6.28318530718045
  0
LINE
  5
7E3
330
6A3
100
AcDbEntity
  8
RONDO
100
AcDbLine
 10
1.300000000003507
 20
100.0185047762131
 30
0.0
 11
1.30000000000362
 21
99.27507802514462
 31
0.0
  0
ELLIPSE
  5
7E4
330
6A3
100
AcDbEntity
  8
RONDO
100
AcDbEllipse
 10
1.300000000003223
 20
98.54786359477509
 30
0.0
 11
1.499999999999996
 21
-0.0000000000000005
 31
0.0
210
0.0
220
0.0
230
1.0
 40
0.4848096202463365
 41
0.0265258289300645
 42
1.570796326794387
  0
ELLIPSE
  5
7E5
330
6A3
100
AcDbEntity
  8
RONDO
100
AcDbEllipse
 10
1.300000000003109
 20
99.29129034584358
 30
0.0
 11
1.499999999999998
 21
-0.0000000000000044
 31
0.0
210
0.0
220
0.0
230
1.0
 40
0.4848096202463365
 41
0.0000000000022391
 42
1.570796326795756
  0
ELLIPSE
  5
7E6
330
6A3
100
AcDbEntity
  8
RONDO
100
AcDbEllipse
 10
-1.299999999996714
 20
64.19350996026207
 30
0.0
 11
-1.500000000000003
 21
0.0000000000000017
 31
0.0
210
0.0
220
0.0
230
1.0
 40
0.4848096202463357
 41
0.0265258289284098
 42
1.570796326795417
  0
ELLIPSE
  5
7E7
330
6A3
100
AcDbEntity
  8
RONDO
100
AcDbEllipse
 10
-1.299999999996856
 20
63.45008320919359
 30
0.0
 11
-1.500000000000003
 21
-0.0000000000000022
 31
0.0
210
0.0
220
0.0
230
1.0
 40
0.4848096202463369
 41
0.0
 42
1.570796326794036
  0
LINE
  5
7E8
330
6A3
100
AcDbEntity
  8
RONDO
100
AcDbLine
 10
-1.299999999996458
 20
62.72286877882411
 30
0.0
 11
-1.299999999996344
 21
63.46629552989256
 31
0.0
  0
ELLIPSE
  5
7E9
330
6A3
100
AcDbEntity
  8
RONDO
100
AcDbEllipse
 10
1.300000000003279
 20
64.19350996026207
 30
0.0
 11
1.5
 21
-0.0000000000002475
 31
0.0
210
0.0
220
0.0
230
1.0
 40
0.4848096202463362
 41
4.712388980385018
 42
6.256659478250663
  0
LINE
  5
7EA
330
6A3
100
AcDbEntity
  8
RONDO
100
AcDbLine
 10
1.300000000003677
 20
63.46629552989256
 30
0.0
 11
1.300000000003535
 21
62.72286877882411
 31
0.0
  0
ELLIPSE
  5
7EB
330
6A3
100
AcDbEntity
  8
RONDO
100
AcDbEllipse
 10
1.300000000003166
 20
63.45008320919359
 30
0.0
 11
1.500000000000003
 21
0.0000000000000052
 31
0.0
210
0.0
220
0.0
230
1.0
 40
0.4848096202463327
 41
4.712388980385209
 42
6.283185307178724
  0
ELLIPSE
  5
7EC
330
6A3
100
AcDbEntity
  8
RONDO
100
AcDbEllipse
 10
16.99999999999997
 20
1.985092303282655
 30
0.0
 11
2.000000000000013
 21
-0.0000000000000089
 31
0.0
210
0.0
220
0.0
230
1.0
 40
0.9925461516413218
 41
4.712388980384698
 42
6.2831853071795
  0
ELLIPSE
  5
7ED
330
6A3
100
AcDbEntity
  8
RONDO
100
AcDbEllipse
 10
13.00000000000003
 20
1.985092303282655
 30
0.0
 11
-2.000000000000038
 21
0.0000000000000406
 31
0.0
210
0.0
220
0.0
230
1.0
 40
0.9925461516413214
 41
0.0
 42
1.570796326794974
  0
ELLIPSE
  5
7EE
330
6A3
100
AcDbEntity
  8
RONDO
100
AcDbEllipse
 10
-13.00000000000003
 20
1.985092303282655
 30
0.0
 11
2.000000000000015
 21
-0.0000000000000089
 31
0.0
210
0.0
220
0.0
230
1.0
 40
0.992546151641322
 41
4.712388980384694
 42
6.2831853071795
  0
ELLIPSE
  5
7EF
330
6A3
100
AcDbEntity
  8
RONDO
100
AcDbEllipse
 10
-17.0
 20
1.985092303282655
 30
0.0
 11
-2.000000000000019
 21
0.0000000000000157
 31
0.0
210
0.0
220
0.0
230
1.0
 40
0.9925461516413221
 41
0.0
 42
1.570796326794966
  0
ELLIPSE
  5
7F0
330
6A3
100
AcDbEntity
  8
RONDO
100
AcDbEllipse
 10
-5.499999999993434
 20
57.79636784234779
 30
0.0
 11
-2.000000000000004
 21
0.0000000000000102
 31
0.0
210
0.0
220
0.0
230
1.0
 40
0.3255681544571535
 41
0.0
 42
1.570796326795457
  0
ELLIPSE
  5
7F1
330
6A3
100
AcDbEntity
  8
RONDO
100
AcDbEllipse
 10
5.500000000006565
 20
57.79636784234779
 30
0.0
 11
2.000000000000001
 21
0.0
 31
0.0
210
0.0
220
0.0
230
1.0
 40
0.3255681544571537
 41
4.712388980382344
 42
6.28318530717434
  0
ELLIPSE
  5
7F2
330
6A3
100
AcDbEntity
  8
RONDO
100
AcDbEllipse
 10
-6.999999999992638
 20
106.5488636910857
 30
0.0
 11
-2.0
 21
0.0
 31
0.0
210
0.0
220
0.0
230
1.0
 40
0.3255681544571606
 41
4.712388980387057
 42
6.283185307184851
  0
ELLIPSE
  5
7F3
330
6A3
100
AcDbEntity
  8
RONDO
100
AcDbEllipse
 10
7.000000000007389
 20
106.5488636910857
 30
0.0
 11
1.999999999999999
 21
0.0000000000000033
 31
0.0
210
0.0
220
0.0
230
1.0
 40
0.3255681544571588
 41
0.0
 42
1.570796326794337
  0
ENDBLK
  5
6A5
330
6A3
100
AcDbEntity
  8
0
100
AcDbBlockEnd
  0
BLOCK
  5
7F6
330
7F5
100
AcDbEntity
  8
0
100
AcDbBlockBegin
  2
RONDO_356-2
 70
     0
 10
0.0
 20
0.0
 30
0.0
  3
RONDO_356-2
  1

  0
LINE
  5
7F8
330
7F5
100
AcDbEntity
  8
RONDO
100
AcDbLine
 10
0.1110163727749409
 20
12.07398672091943
 30
0.0
 11
-0.0569910296728722
 21
12.11794635580393
 31
0.0
  0
LINE
  5
7F9
330
7F5
100
AcDbEntity
  8
RONDO
100
AcDbLine
 10
0.1110163727749409
 20
12.07398672091943
 30
0.0
 11
0.1019718777566254
 21
12.27865158273469
 31
0.0
  0
LINE
  5
7FA
330
7F5
100
AcDbEntity
  8
RONDO
100
AcDbLine
 10
-1.365193573890621
 20
6.92022874820558
 30
0.0
 11
-0.9126872161883454
 21
8.500023176484283
 31
0.0
  0
LINE
  5
7FB
330
7F5
100
AcDbEntity
  8
RONDO
100
AcDbLine
 10
-0.0569910296728722
 20
11.48743770612912
 30
0.0
 11
0.1110163727749409
 21
12.07398672091943
 31
0.0
  0
LINE
  5
7FC
330
7F5
100
AcDbEntity
  8
RONDO
100
AcDbLine
 10
0.1019718777565686
 20
12.27865158273469
 30
0.0
 11
-0.0569910296728722
 21
12.32217649539573
 31
0.0
  0
LINE
  5
7FD
330
7F5
100
AcDbEntity
  8
RONDO
100
AcDbLine
 10
-0.9069910296728949
 20
76.0
 30
0.0
 11
-0.9069910296728664
 21
7.500000000000007
 31
0.0
  0
LINE
  5
7FE
330
7F5
100
AcDbEntity
  8
RONDO
100
AcDbLine
 10
-0.0569910296729006
 20
76.0
 30
0.0
 11
-0.0569910296728722
 21
7.500000000000007
 31
0.0
  0
LINE
  5
7FF
330
7F5
100
AcDbEntity
  8
RONDO
100
AcDbLine
 10
-0.0569910296729006
 20
76.0
 30
0.0
 11
-0.9069910296728949
 21
76.0
 31
0.0
  0
LINE
  5
800
330
7F5
100
AcDbEntity
  8
RONDO
100
AcDbLine
 10
-0.9069910296728949
 20
76.0
 30
0.0
 11
-0.9069910296728949
 21
90.12094778178122
 31
0.0
  0
LINE
  5
801
330
7F5
100
AcDbEntity
  8
RONDO
100
AcDbLine
 10
-0.0569910296729006
 20
90.12094778178122
 30
0.0
 11
-0.0569910296729006
 21
76.0
 31
0.0
  0
LINE
  5
802
330
7F5
100
AcDbEntity
  8
RONDO
100
AcDbLine
 10
24.96681998496209
 20
105.7451729018263
 30
0.0
 11
22.13026425816415
 21
104.7684684384548
 31
0.0
  0
LINE
  5
803
330
7F5
100
AcDbEntity
  8
RONDO
100
AcDbLine
 10
21.85353132687558
 20
105.5721592277142
 30
0.0
 11
24.69008705367353
 21
106.5488636910857
 31
0.0
  0
ARC
  5
804
330
7F5
100
AcDbEntity
  8
RONDO
100
AcDbCircle
 10
24.47435497025575
 20
97.96073469413968
 30
0.0
 40
8.050000000000059
100
AcDbArc
 50
109.0000000000005
 51
119.0000000000005
  0
LINE
  5
805
330
7F5
100
AcDbEntity
  8
RONDO
100
AcDbLine
 10
1.694720388083112
 20
94.53777730283517
 30
0.0
 11
20.57163752727269
 21
105.0014233366119
 31
0.0
  0
ARC
  5
806
330
7F5
100
AcDbEntity
  8
RONDO
100
AcDbCircle
 10
4.143008970327116
 20
90.12094778178122
 30
0.0
 40
5.050000000000023
100
AcDbArc
 50
119.0000000000005
 51
151.89431214925
  0
LINE
  5
807
330
7F5
100
AcDbEntity
  8
RONDO
100
AcDbLine
 10
0.681779341569694
 20
92.50000000000003
 30
0.0
 11
-0.3114955523991227
 21
92.50000000000003
 31
0.0
  0
ARC
  5
808
330
7F5
100
AcDbEntity
  8
RONDO
100
AcDbCircle
 10
4.143008970327088
 20
90.12094778178122
 30
0.0
 40
4.199999999999979
100
AcDbArc
 50
118.9999999999996
 51
145.4975828278044
  0
LINE
  5
809
330
7F5
100
AcDbEntity
  8
RONDO
100
AcDbLine
 10
20.98372570448209
 20
104.2579965855434
 30
0.0
 11
2.106808565292482
 21
93.79435055176669
 31
0.0
  0
ARC
  5
80A
330
7F5
100
AcDbEntity
  8
RONDO
100
AcDbCircle
 10
24.47435497025555
 20
97.96073469414004
 30
0.0
 40
7.199999999999667
100
AcDbArc
 50
108.9999999999997
 51
118.9999999999996
  0
ARC
  5
80B
330
7F5
100
AcDbEntity
  8
RONDO
100
AcDbCircle
 10
4.143008970327116
 20
90.12094778178122
 30
0.0
 40
5.050000000000002
100
AcDbArc
 50
151.89431214925
 51
180.0
  0
ARC
  5
80C
330
7F5
100
AcDbEntity
  8
RONDO
100
AcDbCircle
 10
4.143008970327116
 20
90.12094778178122
 30
0.0
 40
4.2
100
AcDbArc
 50
145.4975828278053
 51
180.0
  0
LINE
  5
80D
330
7F5
100
AcDbEntity
  8
RONDO
100
AcDbLine
 10
-1.606991029672883
 20
47.80000000000004
 30
0.0
 11
-1.606991029672883
 21
46.50000000000003
 31
0.0
  0
LINE
  5
80E
330
7F5
100
AcDbEntity
  8
RONDO
100
AcDbLine
 10
-1.606991029672883
 20
46.50000000000003
 30
0.0
 11
-0.9069910296728664
 21
46.50000000000003
 31
0.0
  0
LINE
  5
80F
330
7F5
100
AcDbEntity
  8
RONDO
100
AcDbLine
 10
-1.606991029672883
 20
10.50000000000003
 30
0.0
 11
-1.606991029672883
 21
46.50000000000003
 31
0.0
  0
LINE
  5
810
330
7F5
100
AcDbEntity
  8
RONDO
100
AcDbLine
 10
-1.606991029672883
 20
10.50000000000003
 30
0.0
 11
-0.9069910296728664
 21
10.50000000000003
 31
0.0
  0
LINE
  5
811
330
7F5
100
AcDbEntity
  8
RONDO
100
AcDbLine
 10
-1.606991029672883
 20
10.50000000000003
 30
0.0
 11
-1.606991029672883
 21
9.200000000000024
 31
0.0
  0
ARC
  5
812
330
7F5
100
AcDbEntity
  8
RONDO
100
AcDbCircle
 10
-0.9069910296728664
 20
47.80000000000004
 30
0.0
 40
0.7000000000000001
100
AcDbArc
 50
90.0
 51
180.0
  0
ARC
  5
813
330
7F5
100
AcDbEntity
  8
RONDO
100
AcDbCircle
 10
-0.9069910296728664
 20
9.200000000000024
 30
0.0
 40
0.7000000000000001
100
AcDbArc
 50
180.0
 51
270.0
  0
SPLINE
  5
814
330
7F5
100
AcDbEntity
  8
RONDO
100
AcDbSpline
210
0.0
220
0.0
230
1.0
 70
     8
 71
     3
 72
    14
 73
    10
 74
     0
 42
0.000000001
 43
0.0000000001
 40
-1.737569424960229
 40
-1.737569424960229
 40
-1.737569424960229
 40
-1.737569424960229
 40
-1.669744184281429
 40
-1.669744184281429
 40
-1.589306848037183
 40
-1.589306848037183
 40
-1.471015387503985
 40
-1.471015387503985
 40
-1.467444431686525
 40
-1.467444431686525
 40
-1.467444431686525
 40
-1.467444431686525
 10
-1.361983153293436
 20
7.016579786115421
 30
0.0
 10
-1.362992136425646
 20
7.073358769394197
 30
0.0
 10
-1.36446654525352
 20
7.154695432473339
 30
0.0
 10
-1.368848328744263
 20
7.382770869217814
 30
0.0
 10
-1.371959952870838
 20
7.537832863349002
 30
0.0
 10
-1.381568501899522
 20
7.988045979481661
 30
0.0
 10
-1.388923569741621
 20
8.310402873832948
 30
0.0
 10
-1.39757856715849
 20
8.679469590136712
 30
0.0
 10
-1.397832956397195
 20
8.690310746702628
 30
0.0
 10
-1.398088080111875
 20
8.701177623261763
 30
0.0
  0
LINE
  5
815
330
7F5
100
AcDbEntity
  8
RONDO
100
AcDbLine
 10
-2.796338129271134
 20
19.86893113983408
 30
0.0
 11
-2.211853694176397
 21
7.001745240643735
 31
0.0
  0
LINE
  5
816
330
7F5
100
AcDbEntity
  8
RONDO
100
AcDbLine
 10
-1.942201624661606
 20
19.8568314503652
 30
0.0
 11
-1.606991029672911
 21
17.74039504852011
 31
0.0
  0
LINE
  5
817
330
7F5
100
AcDbEntity
  8
RONDO
100
AcDbLine
 10
-1.942201624661578
 20
19.85683145036515
 30
0.0
 11
-1.606991029672883
 21
12.43861122371718
 31
0.0
  0
LINE
  5
818
330
7F5
100
AcDbEntity
  8
RONDO
100
AcDbLine
 10
-1.440149915975155
 20
8.746412520061547
 30
0.0
 11
-1.361983153293436
 21
7.016579786115421
 31
0.0
  0
SPLINE
  5
819
330
7F5
100
AcDbEntity
  8
RONDO
100
AcDbSpline
210
0.0
220
0.0
230
1.0
 70
    12
 71
     2
 72
     6
 73
     3
 74
     0
 42
0.000000001
 43
0.0000000001
 40
0.4154636586363834
 40
0.4154636586363834
 40
0.4154636586363834
 40
0.5007634132662259
 40
0.5007634132662259
 40
0.5007634132662259
 10
-1.942201624661578
 20
19.85683145036515
 30
0.0
 41
1.000853038679393
 10
-2.372030729146842
 20
19.86276150965791
 30
0.0
 41
1.000872098988649
 10
-2.796338129271134
 20
19.86893113983408
 30
0.0
 41
1.000863027704018
  0
ARC
  5
81A
330
7F5
100
AcDbEntity
  8
RONDO
100
AcDbCircle
 10
-2.311838463691998
 20
7.000000000000007
 30
0.0
 40
0.0999999999999738
100
AcDbArc
 50
352.999999999999
 51
1.000000000004217
  0
LINE
  5
81B
330
7F5
100
AcDbEntity
  8
RONDO
100
AcDbLine
 10
-2.445767915202537
 20
5.088681245177021
 30
0.0
 11
-2.212583848527856
 21
6.987813065659501
 31
0.0
  0
LINE
  5
81C
330
7F5
100
AcDbEntity
  8
RONDO
100
AcDbLine
 10
-1.368919619632777
 20
6.884224123765115
 30
0.0
 11
-1.602103686307458
 21
4.985092303282648
 31
0.0
  0
ARC
  5
81D
330
7F5
100
AcDbEntity
  8
RONDO
100
AcDbCircle
 10
-2.311838463692083
 20
7.000000000000007
 30
0.0
 40
0.950000000000047
100
AcDbArc
 50
353.0000000000005
 51
1.000000000000962
  0
LINE
  5
81E
330
7F5
100
AcDbEntity
  8
RONDO
100
AcDbLine
 10
-2.689506602012841
 20
3.103588941894379
 30
0.0
 11
-2.445767915202537
 21
5.088681245177021
 31
0.0
  0
LINE
  5
81F
330
7F5
100
AcDbEntity
  8
RONDO
100
AcDbLine
 10
-2.689506602012869
 20
3.103588941894364
 30
0.0
 11
-1.845842373117733
 21
2.999999999999992
 31
0.0
  0
LINE
  5
820
330
7F5
100
AcDbEntity
  8
RONDO
100
AcDbLine
 10
-1.60210368630743
 20
4.985092303282648
 30
0.0
 11
-1.845842373117704
 21
3.000000000000006
 31
0.0
  0
LINE
  5
821
330
7F5
100
AcDbEntity
  8
RONDO
100
AcDbLine
 10
-1.602103686307458
 20
4.985092303282648
 30
0.0
 11
-2.445767915202537
 21
5.088681245177021
 31
0.0
  0
SPLINE
  5
822
330
7F5
100
AcDbEntity
  8
RONDO
100
AcDbSpline
210
0.0
220
0.0
230
1.0
 70
    12
 71
     2
 72
     6
 73
     3
 74
     0
 42
0.000000001
 43
0.0000000001
 40
0.3638185842193434
 40
0.3638185842193434
 40
0.3638185842193434
 40
0.3861398443965466
 40
0.3861398443965466
 40
0.3861398443965466
 10
-1.81069231726363
 20
21.85318364767637
 30
0.0
 41
1.003283760585495
 10
-1.708446734274019
 20
21.90492603761127
 30
0.0
 41
1.003317341864344
 10
-1.606991029672883
 20
21.95638958918746
 30
0.0
 41
1.00334268316044
  0
SPLINE
  5
823
330
7F5
100
AcDbEntity
  8
RONDO
100
AcDbSpline
210
0.0
220
0.0
230
1.0
 70
     8
 71
     3
 72
    14
 73
    10
 74
     0
 42
0.000000001
 43
0.0000000001
 40
0.3053300915600992
 40
0.3053300915600992
 40
0.3053300915600992
 40
0.3053300915600992
 40
0.3608472155816012
 40
0.3608472155816012
 40
0.438451795734841
 40
0.438451795734841
 40
0.5057756775228187
 40
0.5057756775228187
 40
0.5252984010157981
 40
0.5252984010157981
 40
0.5252984010157981
 40
0.5252984010157981
 10
-2.796338129271134
 20
19.86893113983408
 30
0.0
 10
-2.805069957457646
 20
20.06902598303878
 30
0.0
 10
-2.788631712166306
 20
20.27774666802962
 30
0.0
 10
-2.705960576799014
 20
20.71371661636099
 30
0.0
 10
-2.599469505958126
 20
21.00529711228506
 30
0.0
 10
-2.348034859384029
 20
21.41780320309315
 30
0.0
 10
-2.169416344990253
 20
21.61933609683461
 30
0.0
 10
-1.932349154646459
 20
21.78547713807001
 30
0.0
 10
-1.873291381659953
 20
21.82150477114357
 30
0.0
 10
-1.81069231726363
 20
21.85318364767637
 30
0.0
  0
LINE
  5
824
330
7F5
100
AcDbEntity
  8
RONDO
100
AcDbLine
 10
1.184250576054182
 20
20.58440722493859
 30
0.0
 11
0.6445257716355286
 21
23.99209552634452
 31
0.0
  0
SPLINE
  5
825
330
7F5
100
AcDbEntity
  8
RONDO
100
AcDbSpline
210
0.0
220
0.0
230
1.0
 70
     8
 71
     3
 72
    12
 73
     8
 74
     0
 42
0.000000001
 43
0.0000000001
 40
1.062385099380964
 40
1.062385099380964
 40
1.062385099380964
 40
1.062385099380964
 40
1.169538754430131
 40
1.169538754430131
 40
1.254821451018246
 40
1.254821451018246
 40
1.310539859537228
 40
1.310539859537228
 40
1.310539859537228
 40
1.310539859537228
 10
0.6445257716355286
 20
23.99209552634452
 30
0.0
 10
0.7004008539845757
 20
23.63931414053045
 30
0.0
 10
0.7056741348598621
 20
23.21073196036526
 30
0.0
 10
0.5910262488300475
 20
22.57960618462739
 30
0.0
 10
0.4775723360936013
 20
22.25789447659947
 30
0.0
 10
0.2307677951934863
 20
21.85790575016637
 30
0.0
 10
0.0919923182987361
 20
21.69455776382514
 30
0.0
 10
-0.0577031363075662
 20
21.56712996221877
 30
0.0
  0
LINE
  5
826
330
7F5
100
AcDbEntity
  8
RONDO
100
AcDbLine
 10
-0.0569910296728722
 20
19.39611685751473
 30
0.0
 11
0.0709533242531677
 21
18.58830799912011
 31
0.0
  0
SPLINE
  5
827
330
7F5
100
AcDbEntity
  8
RONDO
100
AcDbSpline
210
0.0
220
0.0
230
1.0
 70
     8
 71
     3
 72
    12
 73
     8
 74
     0
 42
0.000000001
 43
0.0000000001
 40
0.3200102710839843
 40
0.3200102710839843
 40
0.3200102710839843
 40
0.3200102710839843
 40
0.3446632319658363
 40
0.3446632319658363
 40
0.3826440916966281
 40
0.3826440916966281
 40
0.4101812373524375
 40
0.4101812373524375
 40
0.4101812373524375
 40
0.4101812373524375
 10
-1.606566326312702
 20
20.72341817254049
 30
0.0
 10
-1.67226092904363
 20
20.66532083622176
 30
0.0
 10
-1.732855712013673
 20
20.59334766085721
 30
0.0
 10
-1.843470679579922
 20
20.41627940377143
 30
0.0
 10
-1.896634058518827
 20
20.27396149754021
 30
0.0
 10
-1.938222525149967
 20
20.05956454016823
 30
0.0
 10
-1.946483693988994
 20
19.95609593157261
 30
0.0
 10
-1.942201624661578
 20
19.85683145036515
 30
0.0
  0
ARC
  5
828
330
7F5
100
AcDbEntity
  8
RONDO
100
AcDbCircle
 10
-0.6429728540468318
 20
20.29500346461415
 30
0.0
 40
1.85
100
AcDbArc
 50
292.7000000000006
 51
9.000000000000236
  0
LINE
  5
829
330
7F5
100
AcDbEntity
  8
RONDO
100
AcDbLine
 10
0.0709533242531677
 20
18.58830799912009
 30
0.0
 11
-0.0569910296728722
 21
18.53478771651536
 31
0.0
  0
LINE
  5
82A
330
7F5
100
AcDbEntity
  8
RONDO
100
AcDbLine
 10
0.6445257716355286
 20
23.99209552634452
 30
0.0
 11
-0.0446794098672001
 21
28.34356578497907
 31
0.0
  0
ARC
  5
82B
330
7F5
100
AcDbEntity
  8
RONDO
100
AcDbCircle
 10
0.9430089703270709
 20
28.50000000000001
 30
0.0
 40
0.9999999999999587
100
AcDbArc
 50
180.0
 51
188.999985496388
  0
LINE
  5
82C
330
7F5
100
AcDbEntity
  8
RONDO
100
AcDbLine
 10
0.5999255420848613
 20
2.088681245177034
 30
0.0
 11
0.8436642288951361
 21
0.1035889418943794
 31
0.0
  0
LINE
  5
82D
330
7F5
100
AcDbEntity
  8
RONDO
100
AcDbLine
 10
0.5999255420848613
 20
2.08868124517702
 30
0.0
 11
-0.2437386868102749
 21
1.985092303282648
 31
0.0
  0
LINE
  5
82E
330
7F5
100
AcDbEntity
  8
RONDO
100
AcDbLine
 10
0.0
 20
0.0000000000000069
 30
0.0
 11
-0.2437386868102749
 21
1.985092303282648
 31
0.0
  0
LINE
  5
82F
330
7F5
100
AcDbEntity
  8
RONDO
100
AcDbLine
 10
0.0000000000000568
 20
0.0000000000000069
 30
0.0
 11
0.8436642288951929
 21
0.1035889418943794
 31
0.0
  0
LINE
  5
830
330
7F5
100
AcDbEntity
  8
RONDO
100
AcDbLine
 10
-0.8932014102093148
 20
7.274541714700497
 30
0.0
 11
-0.2437386868102749
 21
1.985092303282648
 31
0.0
  0
LINE
  5
831
330
7F5
100
AcDbEntity
  8
RONDO
100
AcDbLine
 10
0.5999255420848613
 20
2.08868124517702
 30
0.0
 11
-0.0495371813142072
 21
7.378130656594869
 31
0.0
  0
ARC
  5
832
330
7F5
100
AcDbEntity
  8
RONDO
100
AcDbCircle
 10
0.9430089703273552
 20
7.500000000000021
 30
0.0
 40
1.000000000000248
100
AcDbArc
 50
180.0
 51
187.000000000001
  0
ARC
  5
833
330
7F5
100
AcDbEntity
  8
RONDO
100
AcDbCircle
 10
0.9430089703270709
 20
7.500000000000007
 30
0.0
 40
1.849999999999961
100
AcDbArc
 50
180.0
 51
186.9999999999994
  0
LINE
  5
834
330
7F5
100
AcDbEntity
  8
RONDO
100
AcDbLine
 10
23.8914244232333
 20
57.14523153343348
 30
0.0
 11
22.00038727203469
 21
57.7963678423478
 31
0.0
  0
LINE
  5
835
330
7F5
100
AcDbEntity
  8
RONDO
100
AcDbLine
 10
23.8914244232333
 20
57.14523153343348
 30
0.0
 11
24.16815735452189
 21
57.94892232269289
 31
0.0
  0
LINE
  5
836
330
7F5
100
AcDbEntity
  8
RONDO
100
AcDbLine
 10
22.27712020332328
 20
58.6000586316072
 30
0.0
 11
24.16815735452189
 21
57.94892232269289
 31
0.0
  0
LINE
  5
837
330
7F5
100
AcDbEntity
  8
RONDO
100
AcDbLine
 10
22.27712020332328
 20
58.6000586316072
 30
0.0
 11
22.00038727203469
 21
57.7963678423478
 31
0.0
  0
LINE
  5
838
330
7F5
100
AcDbEntity
  8
RONDO
100
AcDbLine
 10
26.8578571361607
 20
106.3963092107406
 30
0.0
 11
24.96681998496209
 21
105.7451729018263
 31
0.0
  0
LINE
  5
839
330
7F5
100
AcDbEntity
  8
RONDO
100
AcDbLine
 10
26.8578571361607
 20
106.3963092107406
 30
0.0
 11
26.58112420487214
 21
107.2
 31
0.0
  0
LINE
  5
83A
330
7F5
100
AcDbEntity
  8
RONDO
100
AcDbLine
 10
24.69008705367353
 20
106.5488636910857
 30
0.0
 11
26.58112420487214
 21
107.2
 31
0.0
  0
LINE
  5
83B
330
7F5
100
AcDbEntity
  8
RONDO
100
AcDbLine
 10
24.69008705367353
 20
106.5488636910857
 30
0.0
 11
24.96681998496209
 21
105.7451729018263
 31
0.0
  0
LINE
  5
83C
330
7F5
100
AcDbEntity
  8
RONDO
100
AcDbLine
 10
22.00038727203469
 20
57.7963678423478
 30
0.0
 11
19.16383154523675
 21
58.77307230571925
 31
0.0
  0
LINE
  5
83D
330
7F5
100
AcDbEntity
  8
RONDO
100
AcDbLine
 10
19.44056447652534
 20
59.57676309497868
 30
0.0
 11
22.27712020332328
 21
58.6000586316072
 31
0.0
  0
ARC
  5
83E
330
7F5
100
AcDbEntity
  8
RONDO
100
AcDbCircle
 10
21.88232563495398
 20
66.66815241197349
 30
0.0
 40
7.499999999999937
100
AcDbArc
 50
241.0000000000004
 51
251.0000000000002
  0
LINE
  5
83F
330
7F5
100
AcDbEntity
  8
RONDO
100
AcDbLine
 10
2.106808565292482
 20
69.05474501179575
 30
0.0
 11
18.2462534831065
 21
60.10850460842807
 31
0.0
  0
ARC
  5
840
330
7F5
100
AcDbEntity
  8
RONDO
100
AcDbCircle
 10
4.143008970327116
 20
72.72814778178122
 30
0.0
 40
4.200000000000002
100
AcDbArc
 50
180.0
 51
240.9999999999995
  0
ARC
  5
841
330
7F5
100
AcDbEntity
  8
RONDO
100
AcDbCircle
 10
4.143008970327059
 20
72.72814778178119
 30
0.0
 40
5.049999999999935
100
AcDbArc
 50
213.7279696977288
 51
241.0000000000004
  0
LINE
  5
842
330
7F5
100
AcDbEntity
  8
RONDO
100
AcDbLine
 10
17.8341653058971
 20
59.36507785735958
 30
0.0
 11
1.694720388083112
 21
68.31131826072726
 31
0.0
  0
ARC
  5
843
330
7F5
100
AcDbEntity
  8
RONDO
100
AcDbCircle
 10
21.88232563495402
 20
66.66815241197358
 30
0.0
 40
8.350000000000029
100
AcDbArc
 50
241.0000000000004
 51
251.0000000000002
  0
ENDBLK
  5
7F7
330
7F5
100
AcDbEntity
  8
0
100
AcDbBlockEnd
  0
BLOCK
  5
846
330
845
100
AcDbEntity
  8
0
100
AcDbBlockBegin
  2
RONDO_356-3
 70
     0
 10
0.0
 20
0.0
 30
0.0
  3
RONDO_356-3
  1

  0
LINE
  5
848
330
845
100
AcDbEntity
  8
RONDO
100
AcDbLine
 10
-27.7648481658336
 20
-19.00000000000904
 30
0.0
 11
-27.7648481658336
 21
-10.44184982922834
 31
0.0
  0
LINE
  5
849
330
845
100
AcDbEntity
  8
RONDO
100
AcDbLine
 10
-26.9148481658336
 20
-10.44184982922834
 30
0.0
 11
-26.9148481658336
 21
-19.00000000000904
 31
0.0
  0
LINE
  5
84A
330
845
100
AcDbEntity
  8
RONDO
100
AcDbLine
 10
-5.00432580928512
 20
-9.000000000000255
 30
0.0
 11
-2.16777008248718
 21
-8.999999999999971
 31
0.0
  0
LINE
  5
84B
330
845
100
AcDbEntity
  8
RONDO
100
AcDbLine
 10
-5.00432580928512
 20
-9.000000000000255
 30
0.0
 11
-6.286219608888018
 21
-9.000000000000426
 31
0.0
  0
LINE
  5
84C
330
845
100
AcDbEntity
  8
RONDO
100
AcDbLine
 10
-25.16313674807759
 20
-9.000000000003524
 30
0.0
 11
-6.286219608888018
 21
-9.000000000000426
 31
0.0
  0
LINE
  5
84D
330
845
100
AcDbEntity
  8
RONDO
100
AcDbLine
 10
-25.16313674807759
 20
-9.000000000003524
 30
0.0
 11
-27.16935268855983
 21
-9.000000000004121
 31
0.0
  0
ELLIPSE
  5
84E
330
845
100
AcDbEntity
  8
RONDO
100
AcDbEllipse
 10
-22.71484816583359
 20
-10.44184982922834
 30
0.0
 11
5.050000000000002
 21
-0.0000000000000001
 31
0.0
210
0.0
220
0.0
230
1.0
 40
0.6060606060609023
 41
2.651055862056432
 42
3.141592653589793
  0
ELLIPSE
  5
84F
330
845
100
AcDbEntity
  8
RONDO
100
AcDbEllipse
 10
-22.71484816583359
 20
-10.44184982922834
 30
0.0
 11
4.2
 21
-0.0000000000000002
 31
0.0
210
0.0
220
0.0
230
1.0
 40
0.6060606060609024
 41
2.539411874038361
 42
3.141592653589792
  0
LINE
  5
850
330
845
100
AcDbEntity
  8
RONDO
100
AcDbLine
 10
-27.7648481658336
 20
10.44184982921868
 30
0.0
 11
-27.7648481658336
 21
-10.44184982922834
 31
0.0
  0
LINE
  5
851
330
845
100
AcDbEntity
  8
RONDO
100
AcDbLine
 10
0.0
 20
7.0
 30
0.0
 11
0.0
 21
-7.000000000000028
 31
0.0
  0
LINE
  5
852
330
845
100
AcDbEntity
  8
RONDO
100
AcDbLine
 10
-25.16313674807759
 20
8.999999999996447
 30
0.0
 11
-25.16313674807759
 21
-9.000000000003524
 31
0.0
  0
LINE
  5
853
330
845
100
AcDbEntity
  8
RONDO
100
AcDbLine
 10
-6.286219608888018
 20
-9.000000000000426
 30
0.0
 11
-6.286219608888018
 21
8.999999999999573
 31
0.0
  0
LINE
  5
854
330
845
100
AcDbEntity
  8
RONDO
100
AcDbLine
 10
-5.00432580928512
 20
8.999999999999744
 30
0.0
 11
-5.00432580928512
 21
-9.000000000000255
 31
0.0
  0
LINE
  5
855
330
845
100
AcDbEntity
  8
RONDO
100
AcDbLine
 10
-0.2767329312885636
 20
7.000000000000255
 30
0.0
 11
-0.2767329312885636
 21
-6.999999999999772
 31
0.0
  0
LINE
  5
856
330
845
100
AcDbEntity
  8
RONDO
100
AcDbLine
 10
-27.7648481658336
 20
10.44184982921868
 30
0.0
 11
-27.7648481658336
 21
18.99999999999099
 31
0.0
  0
LINE
  5
857
330
845
100
AcDbEntity
  8
RONDO
100
AcDbLine
 10
-26.9148481658336
 20
18.99999999999099
 30
0.0
 11
-26.9148481658336
 21
10.44184982921868
 31
0.0
  0
LINE
  5
858
330
845
100
AcDbEntity
  8
RONDO
100
AcDbLine
 10
-27.1693526885598
 20
8.999999999995878
 30
0.0
 11
-25.16313674807759
 21
8.999999999996447
 31
0.0
  0
LINE
  5
859
330
845
100
AcDbEntity
  8
RONDO
100
AcDbLine
 10
-6.286219608888018
 20
8.999999999999573
 30
0.0
 11
-25.16313674807759
 21
8.999999999996447
 31
0.0
  0
LINE
  5
85A
330
845
100
AcDbEntity
  8
RONDO
100
AcDbLine
 10
-6.286219608888018
 20
8.99999999999963
 30
0.0
 11
-5.00432580928512
 21
8.999999999999744
 31
0.0
  0
LINE
  5
85B
330
845
100
AcDbEntity
  8
RONDO
100
AcDbLine
 10
-2.16777008248718
 20
9.000000000000028
 30
0.0
 11
-5.00432580928512
 21
8.999999999999744
 31
0.0
  0
ELLIPSE
  5
85C
330
845
100
AcDbEntity
  8
RONDO
100
AcDbEllipse
 10
-22.71484816583359
 20
10.44184982921868
 30
0.0
 11
-5.050000000000002
 21
-0.0000000000000001
 31
0.0
210
0.0
220
0.0
230
1.0
 40
0.6060606060603091
 41
0.0
 42
0.4905367915333576
  0
ELLIPSE
  5
85D
330
845
100
AcDbEntity
  8
RONDO
100
AcDbEllipse
 10
-22.71484816583359
 20
10.44184982921868
 30
0.0
 11
-4.2
 21
-0.0000000000000002
 31
0.0
210
0.0
220
0.0
230
1.0
 40
0.6060606060603091
 41
0.0000000000000007
 42
0.6021807795514289
  0
ARC
  5
85E
330
845
100
AcDbEntity
  8
RONDO
100
AcDbCircle
 10
-27.76484816583357
 20
-13.55000000001777
 30
0.0
 40
0.7000000000000007
100
AcDbArc
 50
90.0
 51
180.0
  0
LINE
  5
85F
330
845
100
AcDbEntity
  8
RONDO
100
AcDbLine
 10
-28.46484816583359
 20
-13.5500000000178
 30
0.0
 11
-28.46484816583359
 21
-16.15000000001777
 31
0.0
  0
ARC
  5
860
330
845
100
AcDbEntity
  8
RONDO
100
AcDbCircle
 10
-27.76484816583357
 20
-16.15000000001777
 30
0.0
 40
0.7000000000000007
100
AcDbArc
 50
180.0
 51
270.0
  0
ARC
  5
861
330
845
100
AcDbEntity
  8
RONDO
100
AcDbCircle
 10
-27.76484816583357
 20
13.54999999998219
 30
0.0
 40
0.7000000000000007
100
AcDbArc
 50
180.0
 51
270.0
  0
ARC
  5
862
330
845
100
AcDbEntity
  8
RONDO
100
AcDbCircle
 10
-27.76484816583357
 20
16.14999999998221
 30
0.0
 40
0.7000000000000007
100
AcDbArc
 50
90.0
 51
180.0
  0
LINE
  5
863
330
845
100
AcDbEntity
  8
RONDO
100
AcDbLine
 10
-28.46484816583359
 20
13.54999999998219
 30
0.0
 11
-28.46484816583359
 21
16.14999999998221
 31
0.0
  0
LINE
  5
864
330
845
100
AcDbEntity
  8
RONDO
100
AcDbLine
 10
-29.54736373817357
 20
5.999999999969361
 30
0.0
 11
-29.54736373817357
 21
-6.000000000030667
 31
0.0
  0
ELLIPSE
  5
865
330
845
100
AcDbEntity
  8
RONDO
100
AcDbEllipse
 10
-29.30362505136333
 20
5.999999999969958
 30
0.0
 11
0.0000000000000019
 21
1.999999999999746
 31
0.0
210
0.0
220
0.0
230
1.0
 40
0.121869343405132
 41
1.188231373622262
 42
1.570796326795536
  0
ELLIPSE
  5
866
330
845
100
AcDbEntity
  8
RONDO
100
AcDbEllipse
 10
-29.30362505136333
 20
-6.000000000030098
 30
0.0
 11
0.0000000000000614
 21
1.999999999999861
 31
0.0
210
0.0
220
0.0
230
1.0
 40
0.121869343405124
 41
1.570796326795184
 42
1.953361279965371
  0
SPLINE
  5
867
330
845
100
AcDbEntity
  8
RONDO
100
AcDbSpline
210
0.0
220
0.0
230
1.0
 70
    28
 71
     2
 72
     6
 73
     3
 74
     0
 42
0.000000001
 43
0.0000000001
 40
0.3638185842193439
 40
0.3638185842193439
 40
0.3638185842193439
 40
0.4642047401018359
 40
0.4642047401018359
 40
0.4642047401018359
 10
-28.66854945342434
 20
7.999999999974876
 30
0.0
 41
1.003283760585491
 10
-28.208770766313
 20
7.999999999974932
 30
0.0
 41
1.003434786802941
 10
-27.7648481658336
 20
7.999999999975045
 30
0.0
 41
1.003419151042586
  0
ELLIPSE
  5
868
330
845
100
AcDbEntity
  8
RONDO
100
AcDbEllipse
 10
-30.12000036117473
 20
-0.0000000000223679
 30
0.0
 11
0.000000000000378
 21
-12.25101813235508
 31
0.0
210
0.0
220
0.0
230
1.0
 40
0.1564344650402311
 41
0.8592483037135325
 42
2.282344349882654
  0
SPLINE
  5
869
330
845
100
AcDbEntity
  8
RONDO
100
AcDbSpline
210
0.0
220
0.0
230
1.0
 70
    28
 71
     2
 72
     6
 73
     3
 74
     0
 42
0.000000001
 43
0.0000000001
 40
0.3638185842193434
 40
0.3638185842193434
 40
0.3638185842193434
 40
0.4642047401018356
 40
0.4642047401018356
 40
0.4642047401018356
 10
-28.66854945342434
 20
-8.000000000025096
 30
0.0
 41
1.003283760585495
 10
-28.208770766313
 20
-8.000000000025011
 30
0.0
 41
1.003434786802945
 10
-27.7648481658336
 20
-8.000000000024925
 30
0.0
 41
1.00341915104259
  0
SPLINE
  5
86A
330
845
100
AcDbEntity
  8
RONDO
100
AcDbSpline
210
0.0
220
0.0
230
1.0
 70
    24
 71
     3
 72
    14
 73
    10
 74
     0
 42
0.000000001
 43
0.0000000001
 40
0.315715486413785
 40
0.315715486413785
 40
0.315715486413785
 40
0.315715486413785
 40
0.3608472155816011
 40
0.3608472155816011
 40
0.4384517957348408
 40
0.4384517957348408
 40
0.5057756775228187
 40
0.5057756775228187
 40
0.5252984010157983
 40
0.5252984010157983
 40
0.5252984010157983
 40
0.5252984010157983
 10
-29.65649984937619
 20
7.999999999974363
 30
0.0
 10
-29.65614575009258
 20
7.999999999974392
 30
0.0
 10
-29.64003931863448
 20
7.999999999974477
 30
0.0
 10
-29.56381771295972
 20
7.999999999974562
 30
0.0
 10
-29.45732664211883
 20
7.999999999974647
 30
0.0
 10
-29.20589199554468
 20
7.999999999974789
 30
0.0
 10
-29.02727348115096
 20
7.999999999974846
 30
0.0
 10
-28.79020629080716
 20
7.999999999974903
 30
0.0
 10
-28.73114851782066
 20
7.999999999974903
 30
0.0
 10
-28.66854945342434
 20
7.999999999974903
 30
0.0
  0
SPLINE
  5
86B
330
845
100
AcDbEntity
  8
RONDO
100
AcDbSpline
210
0.0
220
0.0
230
1.0
 70
    24
 71
     3
 72
    14
 73
    10
 74
     0
 42
0.000000001
 43
0.0000000001
 40
0.3157154864137853
 40
0.3157154864137853
 40
0.3157154864137853
 40
0.3157154864137853
 40
0.3608472155816012
 40
0.3608472155816012
 40
0.438451795734841
 40
0.438451795734841
 40
0.5057756775228187
 40
0.5057756775228187
 40
0.5252984010157981
 40
0.5252984010157981
 40
0.5252984010157981
 40
0.5252984010157981
 10
-29.65649984937619
 20
-8.000000000025664
 30
0.0
 10
-29.65614575009255
 20
-8.000000000025607
 30
0.0
 10
-29.64003931863448
 20
-8.000000000025551
 30
0.0
 10
-29.56381771295972
 20
-8.000000000025437
 30
0.0
 10
-29.45732664211883
 20
-8.000000000025323
 30
0.0
 10
-29.20589199554473
 20
-8.00000000002521
 30
0.0
 10
-29.02727348115096
 20
-8.000000000025153
 30
0.0
 10
-28.79020629080716
 20
-8.000000000025124
 30
0.0
 10
-28.73114851782066
 20
-8.000000000025124
 30
0.0
 10
-28.66854945342434
 20
-8.000000000025096
 30
0.0
  0
SPLINE
  5
86C
330
845
100
AcDbEntity
  8
RONDO
100
AcDbSpline
210
0.0
220
0.0
230
1.0
 70
     8
 71
     3
 72
    16
 73
    12
 74
     0
 42
0.000000001
 43
0.0000000001
 40
4.08238008792729
 40
4.08238008792729
 40
4.08238008792729
 40
4.08238008792729
 40
4.334383644910249
 40
4.334383644910249
 40
4.586387201893209
 40
4.586387201893209
 40
4.838390758876168
 40
4.838390758876168
 40
5.090394315859128
 40
5.090394315859128
 40
5.342397872842089
 40
5.342397872842089
 40
5.342397872842089
 40
5.342397872842089
 10
-29.65665846818004
 20
7.999999999974363
 30
0.0
 10
-29.55283222219515
 20
7.089728959971381
 30
0.0
 10
-29.4661410217625
 20
6.086756654487686
 30
0.0
 10
-29.33445465199728
 20
3.966899222369988
 30
0.0
 10
-29.2894200137437
 20
2.850039088265333
 30
0.0
 10
-29.24439117943837
 20
0.5776919171960629
 30
0.0
 10
-29.24439117943837
 20
-0.5776919172488988
 30
0.0
 10
-29.2894200137437
 20
-2.850039088317998
 30
0.0
 10
-29.33445465199728
 20
-3.966899222422512
 30
0.0
 10
-29.4661410217625
 20
-6.086756654539698
 30
0.0
 10
-29.55283222219515
 20
-7.08972896002308
 30
0.0
 10
-29.65665846818004
 20
-8.000000000025664
 30
0.0
  0
LINE
  5
86D
330
845
100
AcDbEntity
  8
RONDO
100
AcDbLine
 10
-26.9148481658336
 20
-19.00000000000904
 30
0.0
 11
-27.7648481658336
 21
-19.00000000000904
 31
0.0
  0
LINE
  5
86E
330
845
100
AcDbEntity
  8
RONDO
100
AcDbLine
 10
-27.7648481658336
 20
18.99999999999099
 30
0.0
 11
-26.9148481658336
 21
18.99999999999099
 31
0.0
  0
ELLIPSE
  5
86F
330
845
100
AcDbEntity
  8
RONDO
100
AcDbEllipse
 10
-17.26744390177993
 20
2.299999999987676
 30
0.0
 11
-0.0000000000000189
 21
0.499999999999999
 31
0.0
210
0.0
220
0.0
230
1.0
 40
0.874619707139408
 41
0.0000000000005205
 42
0.5061454830787674
  0
ELLIPSE
  5
870
330
845
100
AcDbEntity
  8
RONDO
100
AcDbEllipse
 10
-19.56708918757366
 20
0.8425503374194818
 30
0.0
 11
0.0000000000003222
 21
-0.5000000000000049
 31
0.0
210
0.0
220
0.0
230
1.0
 40
0.8746197071394032
 41
3.647738136667418
 42
4.712388980383984
  0
ELLIPSE
  5
871
330
845
100
AcDbEntity
  8
RONDO
100
AcDbEllipse
 10
-19.56708918757366
 20
-0.8425503374433276
 30
0.0
 11
0.0000000000000035
 21
-0.5000000000000043
 31
0.0
210
0.0
220
0.0
230
1.0
 40
0.8746197071393876
 41
4.7123889803844
 42
5.777039824101197
  0
ELLIPSE
  5
872
330
845
100
AcDbEntity
  8
RONDO
100
AcDbEllipse
 10
-17.26744390177993
 20
-2.300000000012289
 30
0.0
 11
0.0000000000002816
 21
-0.5000000000000058
 31
0.0
210
0.0
220
0.0
230
1.0
 40
0.8746197071393934
 41
5.777039824100557
 42
6.283185307178942
  0
ELLIPSE
  5
873
330
845
100
AcDbEntity
  8
RONDO
100
AcDbEllipse
 10
-17.46177954945327
 20
2.299999999997453
 30
0.0
 11
0.0000000000001549
 21
0.4999999999999973
 31
0.0
210
0.0
220
0.0
230
1.0
 40
0.8746197071394098
 41
0.0
 42
0.506145483078746
  0
ELLIPSE
  5
874
330
845
100
AcDbEntity
  8
RONDO
100
AcDbEllipse
 10
-17.87386772666264
 20
2.299999999997652
 30
0.0
 11
0.0
 21
0.500000000000015
 31
0.0
210
0.0
220
0.0
230
1.0
 40
0.8746197071393941
 41
0.0
 42
0.5061454830780559
  0
LINE
  5
875
330
845
100
AcDbEntity
  8
RONDO
100
AcDbLine
 10
-18.08587975070176
 20
2.737309853567325
 30
0.0
 11
-17.67379157349239
 21
2.737309853567097
 31
0.0
  0
ELLIPSE
  5
876
330
845
100
AcDbEntity
  8
RONDO
100
AcDbEllipse
 10
-19.761424835247
 20
0.8425503374284915
 30
0.0
 11
0.0000000000000024
 21
0.5000000000000039
 31
0.0
210
0.0
220
0.0
230
1.0
 40
0.8746197071393947
 41
0.5061454830783881
 42
1.570796326795185
  0
LINE
  5
877
330
845
100
AcDbEntity
  8
RONDO
100
AcDbLine
 10
-19.97343685928607
 20
1.279860190998164
 30
0.0
 11
-20.38552503649547
 21
1.279860190998363
 31
0.0
  0
ELLIPSE
  5
878
330
845
100
AcDbEntity
  8
RONDO
100
AcDbEllipse
 10
-20.1735130124564
 20
0.8425503374287188
 30
0.0
 11
-0.0000000000002203
 21
-0.500000000000004
 31
0.0
210
0.0
220
0.0
230
1.0
 40
0.8746197071393948
 41
3.647738136668663
 42
4.712388980385217
  0
LINE
  5
879
330
845
100
AcDbEntity
  8
RONDO
100
AcDbLine
 10
-20.61082286602607
 20
0.8425503374286336
 30
0.0
 11
-20.19873468881667
 21
0.8425503374284346
 31
0.0
  0
ELLIPSE
  5
87A
330
845
100
AcDbEntity
  8
RONDO
100
AcDbEllipse
 10
-19.761424835247
 20
-0.8425503374343463
 30
0.0
 11
0.000000000000315
 21
0.5000000000000062
 31
0.0
210
0.0
220
0.0
230
1.0
 40
0.8746197071393932
 41
1.570796326795589
 42
2.635447170512147
  0
LINE
  5
87B
330
845
100
AcDbEntity
  8
RONDO
100
AcDbLine
 10
-20.19873468881667
 20
-0.8425503374344032
 30
0.0
 11
-20.61082286602607
 21
-0.8425503374342042
 31
0.0
  0
ELLIPSE
  5
87C
330
845
100
AcDbEntity
  8
RONDO
100
AcDbEllipse
 10
-20.1735130124564
 20
-0.842550337434119
 30
0.0
 11
0.0000000000000024
 21
-0.5000000000000049
 31
0.0
210
0.0
220
0.0
230
1.0
 40
0.8746197071393952
 41
4.712388980384969
 42
5.777039824101261
  0
LINE
  5
87D
330
845
100
AcDbEntity
  8
RONDO
100
AcDbLine
 10
-20.38552503649547
 20
-1.279860191003848
 30
0.0
 11
-19.97343685928607
 21
-1.279860191004075
 31
0.0
  0
ELLIPSE
  5
87E
330
845
100
AcDbEntity
  8
RONDO
100
AcDbEllipse
 10
-17.46177954945327
 20
-2.30000000000254
 30
0.0
 11
-0.0000000000000011
 21
-0.5000000000000005
 31
0.0
210
0.0
220
0.0
230
1.0
 40
0.8746197071393954
 41
5.777039824100917
 42
6.283185307179238
  0
LINE
  5
87F
330
845
100
AcDbEntity
  8
RONDO
100
AcDbLine
 10
-17.67379157349239
 20
-2.73730985357227
 30
0.0
 11
-18.08587975070176
 21
-2.737309853572071
 31
0.0
  0
ELLIPSE
  5
880
330
845
100
AcDbEntity
  8
RONDO
100
AcDbEllipse
 10
-17.87386772666264
 20
-2.300000000002341
 30
0.0
 11
-0.0000000000003163
 21
-0.5000000000000026
 31
0.0
210
0.0
220
0.0
230
1.0
 40
0.8746197071394028
 41
5.777039824101923
 42
6.283185307180228
  0
LINE
  5
881
330
845
100
AcDbEntity
  8
RONDO
100
AcDbLine
 10
-19.77910121161275
 20
1.279860190989211
 30
0.0
 11
-17.47945592581905
 21
2.737309853557405
 31
0.0
  0
LINE
  5
882
330
845
100
AcDbEntity
  8
RONDO
100
AcDbLine
 10
-20.00439904114336
 20
-0.8425503374432707
 30
0.0
 11
-20.00439904114336
 21
0.8425503374195386
 31
0.0
  0
LINE
  5
883
330
845
100
AcDbEntity
  8
RONDO
100
AcDbLine
 10
-17.47945592581905
 20
-2.73730985358199
 30
0.0
 11
-19.77910121161275
 21
-1.279860191013028
 31
0.0
  0
ELLIPSE
  5
884
330
845
100
AcDbEntity
  8
RONDO
100
AcDbEllipse
 10
-16.58757221318484
 20
1.299999999997879
 30
0.0
 11
0.0000000000000031
 21
1.499999999999997
 31
0.0
210
0.0
220
0.0
230
1.0
 40
0.8746197071393972
 41
4.712388980384975
 42
6.283185307179534
  0
ELLIPSE
  5
885
330
845
100
AcDbEntity
  8
RONDO
100
AcDbEllipse
 10
-16.58757221318484
 20
-1.300000000002114
 30
0.0
 11
-0.0000000000000022
 21
-1.499999999999998
 31
0.0
210
0.0
220
0.0
230
1.0
 40
0.8746197071393959
 41
0.0
 42
1.57079632679485
  0
LINE
  5
886
330
845
100
AcDbEntity
  8
RONDO
100
AcDbLine
 10
-17.87386772666264
 20
2.79999999999768
 30
0.0
 11
-16.58757221318484
 21
2.799999999997879
 31
0.0
  0
LINE
  5
887
330
845
100
AcDbEntity
  8
RONDO
100
AcDbLine
 10
-20.38552503649547
 20
1.279860190998363
 30
0.0
 11
-18.08587975070176
 21
2.737309853567325
 31
0.0
  0
LINE
  5
888
330
845
100
AcDbEntity
  8
RONDO
100
AcDbLine
 10
-17.67379157349239
 20
2.737309853567097
 30
0.0
 11
-19.97343685928607
 21
1.279860190998164
 31
0.0
  0
LINE
  5
889
330
845
100
AcDbEntity
  8
RONDO
100
AcDbLine
 10
-20.61082286602607
 20
-0.8425503374342042
 30
0.0
 11
-20.61082286602607
 21
0.8425503374286336
 31
0.0
  0
LINE
  5
88A
330
845
100
AcDbEntity
  8
RONDO
100
AcDbLine
 10
-20.19873468881667
 20
0.8425503374284346
 30
0.0
 11
-20.19873468881667
 21
-0.8425503374344032
 31
0.0
  0
LINE
  5
88B
330
845
100
AcDbEntity
  8
RONDO
100
AcDbLine
 10
-18.08587975070176
 20
-2.737309853572071
 30
0.0
 11
-20.38552503649547
 21
-1.279860191003848
 31
0.0
  0
LINE
  5
88C
330
845
100
AcDbEntity
  8
RONDO
100
AcDbLine
 10
-19.97343685928607
 20
-1.279860191004075
 30
0.0
 11
-17.67379157349239
 21
-2.73730985357227
 31
0.0
  0
LINE
  5
88D
330
845
100
AcDbEntity
  8
RONDO
100
AcDbLine
 10
-15.27564265247576
 20
1.299999999998107
 30
0.0
 11
-15.27564265247576
 21
-1.300000000001915
 31
0.0
  0
LINE
  5
88E
330
845
100
AcDbEntity
  8
RONDO
100
AcDbLine
 10
-16.58757221318484
 20
-2.800000000002142
 30
0.0
 11
-17.87386772666264
 21
-2.800000000002313
 31
0.0
  0
ELLIPSE
  5
88F
330
845
100
AcDbEntity
  8
RONDO
100
AcDbEllipse
 10
-26.25793159407584
 20
-17.00000000003095
 30
0.0
 11
0.0000000000000012
 21
-2.000000000000019
 31
0.0
210
0.0
220
0.0
230
1.0
 40
0.1218693434051478
 41
0.0
 42
1.570796326794292
  0
ELLIPSE
  5
890
330
845
100
AcDbEntity
  8
RONDO
100
AcDbEllipse
 10
-26.25793159407584
 20
12.99999999996905
 30
0.0
 11
0.0000000000000016
 21
-2.000000000000019
 31
0.0
210
0.0
220
0.0
230
1.0
 40
0.1218693434051483
 41
0.0
 42
1.570796326794292
  0
ELLIPSE
  5
891
330
845
100
AcDbEntity
  8
RONDO
100
AcDbEllipse
 10
-26.25793159407584
 20
16.99999999996905
 30
0.0
 11
0.0000000000000031
 21
2.000000000000013
 31
0.0
210
0.0
220
0.0
230
1.0
 40
0.1218693434051482
 41
4.712388980404531
 42
6.283185307219835
  0
ELLIPSE
  5
892
330
845
100
AcDbEntity
  8
RONDO
100
AcDbEllipse
 10
-26.25793159407584
 20
-13.00000000003098
 30
0.0
 11
0.0000000000000036
 21
2.000000000000013
 31
0.0
210
0.0
220
0.0
230
1.0
 40
0.1218693434051486
 41
4.712388980404531
 42
6.283185307219837
  0
LINE
  5
893
330
845
100
AcDbEntity
  8
RONDO
100
AcDbLine
 10
-26.01419290726551
 20
-17.00000000003157
 30
0.0
 11
-26.01419290726551
 21
-13.00000000003155
 31
0.0
  0
LINE
  5
894
330
845
100
AcDbEntity
  8
RONDO
100
AcDbLine
 10
-26.25793159407584
 20
-11.00000000003095
 30
0.0
 11
-26.90739431747491
 21
-11.00000000002939
 31
0.0
  0
LINE
  5
895
330
845
100
AcDbEntity
  8
RONDO
100
AcDbLine
 10
-26.90739431747491
 20
-19.00000000002939
 30
0.0
 11
-26.90739431747491
 21
-11.00000000002939
 31
0.0
  0
LINE
  5
896
330
845
100
AcDbEntity
  8
RONDO
100
AcDbLine
 10
-26.25793159407584
 20
-19.00000000003095
 30
0.0
 11
-26.90739431747491
 21
-19.00000000002939
 31
0.0
  0
LINE
  5
897
330
845
100
AcDbEntity
  8
RONDO
100
AcDbLine
 10
-26.90739431747491
 20
-11.00000000002939
 30
0.0
 11
-26.91484816583358
 21
-11.00000000002936
 31
0.0
  0
LINE
  5
898
330
845
100
AcDbEntity
  8
RONDO
100
AcDbLine
 10
-26.90739431747491
 20
-19.00000000002939
 30
0.0
 11
-26.9148481658336
 21
-19.00000000002936
 31
0.0
  0
LINE
  5
899
330
845
100
AcDbEntity
  8
RONDO
100
AcDbLine
 10
-26.01419290726551
 20
16.99999999996848
 30
0.0
 11
-26.01419290726551
 21
12.99999999996848
 31
0.0
  0
LINE
  5
89A
330
845
100
AcDbEntity
  8
RONDO
100
AcDbLine
 10
-26.25793159407584
 20
18.99999999996905
 30
0.0
 11
-26.90739431747491
 21
18.99999999997064
 31
0.0
  0
LINE
  5
89B
330
845
100
AcDbEntity
  8
RONDO
100
AcDbLine
 10
-26.90739431747491
 20
18.99999999997064
 30
0.0
 11
-26.90739431747491
 21
10.99999999997064
 31
0.0
  0
LINE
  5
89C
330
845
100
AcDbEntity
  8
RONDO
100
AcDbLine
 10
-26.25793159407584
 20
10.99999999996905
 30
0.0
 11
-26.90739431747491
 21
10.99999999997064
 31
0.0
  0
LINE
  5
89D
330
845
100
AcDbEntity
  8
RONDO
100
AcDbLine
 10
-26.90739431747491
 20
10.99999999997064
 30
0.0
 11
-26.91484816583358
 21
10.99999999997064
 31
0.0
  0
LINE
  5
89E
330
845
100
AcDbEntity
  8
RONDO
100
AcDbLine
 10
-26.90739431747491
 20
18.99999999997064
 30
0.0
 11
-26.9148481658336
 21
18.99999999997064
 31
0.0
  0
ELLIPSE
  5
89F
330
845
100
AcDbEntity
  8
RONDO
100
AcDbEllipse
 10
-2.16777008248718
 20
7.000000000000028
 30
0.0
 11
0.0
 21
2.0
 31
0.0
210
0.0
220
0.0
230
1.0
 40
0.9455185755993156
 41
4.712388980384671
 42
6.283185307179365
  0
LINE
  5
8A0
330
845
100
AcDbEntity
  8
RONDO
100
AcDbLine
 10
-0.2767329312885636
 20
7.000000000000255
 30
0.0
 11
0.0
 21
7.0
 31
0.0
  0
ELLIPSE
  5
8A1
330
845
100
AcDbEntity
  8
RONDO
100
AcDbEllipse
 10
-1.891037151198617
 20
6.999999999999801
 30
0.0
 11
-0.0000000000000029
 21
2.000000000000005
 31
0.0
210
0.0
220
0.0
230
1.0
 40
0.9455185755993154
 41
4.712388980384865
 42
6.283185307179571
  0
LINE
  5
8A2
330
845
100
AcDbEntity
  8
RONDO
100
AcDbLine
 10
-1.891037151198617
 20
8.999999999999801
 30
0.0
 11
-2.16777008248718
 21
9.000000000000028
 31
0.0
  0
ELLIPSE
  5
8A3
330
845
100
AcDbEntity
  8
RONDO
100
AcDbEllipse
 10
-1.891037151198617
 20
-7.000000000000198
 30
0.0
 11
0.0
 21
-2.000000000000001
 31
0.0
210
0.0
220
0.0
230
1.0
 40
0.9455185755993159
 41
0.0
 42
1.570796326794878
  0
LINE
  5
8A4
330
845
100
AcDbEntity
  8
RONDO
100
AcDbLine
 10
0.0
 20
-7.000000000000028
 30
0.0
 11
-0.2767329312885636
 21
-6.999999999999772
 31
0.0
  0
ELLIPSE
  5
8A5
330
845
100
AcDbEntity
  8
RONDO
100
AcDbEllipse
 10
-2.16777008248718
 20
-6.999999999999971
 30
0.0
 11
-0.0000000000000011
 21
-1.999999999999999
 31
0.0
210
0.0
220
0.0
230
1.0
 40
0.9455185755993159
 41
0.0
 42
1.570796326795075
  0
LINE
  5
8A6
330
845
100
AcDbEntity
  8
RONDO
100
AcDbLine
 10
-2.16777008248718
 20
-8.999999999999971
 30
0.0
 11
-1.891037151198617
 21
-9.000000000000227
 31
0.0
  0
ENDBLK
  5
847
330
845
100
AcDbEntity
  8
0
100
AcDbBlockEnd
  0
ENDSEC
  0
SECTION
  2
ENTITIES
  0
INSERT
  5
7F4
330
1F
100
AcDbEntity
  8
0
100
AcDbBlockReference
  2
RONDO_356-1
 10
0.0
 20
0.0
 30
0.0
  0
INSERT
  5
844
330
1F
100
AcDbEntity
  8
0
100
AcDbBlockReference
  2
RONDO_356-2
 10
52.67907098480006
 20
-0.0000000000000069
 30
0.0
  0
INSERT
  5
8A7
330
1F
100
AcDbEntity
  8
0
100
AcDbBlockReference
  2
RONDO_356-3
 10
79.53692812096076
 20
142.0436092882137
 30
0.0
  0
ENDSEC
  0
SECTION
  2
OBJECTS
  0
DICTIONARY
  5
C
330
0
100
AcDbDictionary
281
     1
  3
ACAD_2007HEADERVARS_RT
350
8AE
  3
ACAD_CIP_PREVIOUS_PRODUCT_INFO
350
1E9
  3
ACAD_COLOR
350
73
  3
ACAD_DETAILVIEWSTYLE
350
1E4
  3
ACAD_GROUP
350
D
  3
ACAD_LAYOUT
350
1A
  3
ACAD_MATERIAL
350
72
  3
ACAD_MLEADERSTYLE
350
D7
  3
ACAD_MLINESTYLE
350
17
  3
ACAD_PLOTSETTINGS
350
19
  3
ACAD_PLOTSTYLENAME
350
E
  3
ACAD_SCALELIST
350
B6
  3
ACAD_SECTIONVIEWSTYLE
350
1E2
  3
ACAD_TABLESTYLE
350
86
  3
ACAD_VISUALSTYLE
350
99
  3
ACDB_RECOMPOSE_DATA
350
8AC
  3
AcDbVariableDictionary
350
66
  3
DWGPROPS
350
8AD
  0
DICTIONARY
  5
17A
330
2
100
AcDbDictionary
280
     1
281
     1
  3
ACAD_LAYERSTATES
360
17B
  0
DICTIONARY
  5
E6
330
10
100
AcDbDictionary
280
     1
281
     1
  0
DICTIONARY
  5
15D
330
1F
100
AcDbDictionary
280
     1
281
     1
  3
ACAD_SORTENTS
360
1BC
  0
DICTIONARY
  5
8AE
102
{ACAD_REACTORS
330
C
102
}
330
C
100
AcDbDictionary
281
     1
  3
INTERFEREVPVS
350
8AF
  0
XRECORD
  5
1E9
102
{ACAD_REACTORS
330
C
102
}
330
C
100
AcDbXrecord
280
     1
300
AMECH_PP
300
2016
300
86477PDSP_2016_0F
  0
DICTIONARY
  5
73
102
{ACAD_REACTORS
330
C
102
}
330
C
100
AcDbDictionary
281
     1
  0
DICTIONARY
  5
1E4
102
{ACAD_REACTORS
330
C
102
}
330
C
100
AcDbDictionary
281
     1
  3
Imperial24
350
1E5
  3
Metric50
350
2AC
  0
DICTIONARY
  5
D
102
{ACAD_REACTORS
330
C
102
}
330
C
100
AcDbDictionary
281
     1
  0
DICTIONARY
  5
1A
102
{ACAD_REACTORS
330
C
102
}
330
C
100
AcDbDictionary
281
     1
  3
Layout1
350
59
  3
Layout2
350
5E
  3
Model
350
22
  0
DICTIONARY
  5
72
102
{ACAD_REACTORS
330
C
102
}
330
C
100
AcDbDictionary
281
     1
  3
ByBlock
350
97
  3
ByLayer
350
96
  3
Global
350
98
  0
DICTIONARY
  5
D7
102
{ACAD_REACTORS
330
C
102
}
330
C
100
AcDbDictionary
281
     1
  3
Standard
350
D8
  0
DICTIONARY
  5
17
102
{ACAD_REACTORS
330
C
102
}
330
C
100
AcDbDictionary
281
     1
  3
Standard
350
18
  0
DICTIONARY
  5
19
102
{ACAD_REACTORS
330
C
102
}
330
C
100
AcDbDictionary
281
     1
  0
ACDBDICTIONARYWDFLT
  5
E
102
{ACAD_REACTORS
330
C
102
}
330
C
100
AcDbDictionary
281
     1
  3
Normal
350
F
100
AcDbDictionaryWithDefault
340
F
  0
DICTIONARY
  5
B6
102
{ACAD_REACTORS
330
C
102
}
330
C
100
AcDbDictionary
281
     1
  3
A0
350
B7
  3
A1
350
124
  3
A2
350
125
  3
A3
350
126
  3
A4
350
127
  3
A5
350
128
  3
A6
350
129
  3
A7
350
12A
  3
A8
350
12B
  3
A9
350
12C
  3
B0
350
12D
  3
B1
350
12E
  3
B2
350
12F
  3
B3
350
130
  3
B4
350
131
  3
B5
350
132
  3
B6
350
133
  3
B7
350
134
  3
B8
350
135
  3
B9
350
136
  3
C0
350
137
  3
C1
350
138
  3
C2
350
139
  3
C3
350
13A
  3
C4
350
13B
  3
C5
350
13C
  3
C6
350
13D
  3
C7
350
13E
  3
C8
350
13F
  3
C9
350
140
  3
D0
350
141
  3
D1
350
142
  3
D2
350
143
  0
DICTIONARY
  5
1E2
102
{ACAD_REACTORS
330
C
102
}
330
C
100
AcDbDictionary
281
     1
  3
Imperial24
350
1E3
  3
Metric50
350
2AB
  0
DICTIONARY
  5
86
102
{ACAD_REACTORS
330
C
102
}
330
C
100
AcDbDictionary
281
     1
  3
Standard
350
87
  0
DICTIONARY
  5
99
102
{ACAD_REACTORS
330
C
102
}
330
C
100
AcDbDictionary
281
     1
  3
2dWireframe
350
9F
  3
3D Hidden
350
A1
  3
3dWireframe
350
A0
  3
Basic
350
9E
  3
Brighten
350
A5
  3
ColorChange
350
A9
  3
Conceptual
350
A2
  3
Dim
350
A4
  3
EdgeColorOff
350
1E1
  3
Facepattern
350
A8
  3
Flat
350
9A
  3
FlatWithEdges
350
9B
  3
Gouraud
350
9C
  3
GouraudWithEdges
350
9D
  3
Hidden
350
1D9
  3
JitterOff
350
1DF
  3
Linepattern
350
A7
  3
OverhangOff
350
1E0
  3
Realistic
350
A3
  3
Shaded
350
1DE
  3
Shaded with edges
350
1DD
  3
Shades of Gray
350
1DA
  3
Sketchy
350
1DB
  3
Thicken
350
A6
  3
Wireframe
350
1D8
  3
X-Ray
350
1DC
  0
XRECORD
  5
8AC
102
{ACAD_REACTORS
330
C
102
}
330
C
100
AcDbXrecord
280
     1
 90
        1
330
87
  0
DICTIONARY
  5
66
102
{ACAD_REACTORS
330
C
102
}
330
C
100
AcDbDictionary
281
     1
  3
CANNOSCALE
350
F0
  3
CMLEADERSTYLE
350
EF
  3
CTABLESTYLE
350
89
  3
CVIEWDETAILSTYLE
350
250
  3
CVIEWSECTIONSTYLE
350
251
  3
DIMASSOC
350
67
  3
HIDETEXT
350
6B
  3
INDEXCTL
350
255
  3
LAYEREVAL
350
14D
  3
LAYERNOTIFY
350
14E
  3
LIGHTINGUNITS
350
253
  3
LOFTANG1
350
8A8
  3
LOFTANG2
350
8A9
  3
MSLTSCALE
350
252
  3
SOLIDHIST
350
257
  3
SORTENTS
350
254
  3
XCLIPFRAME
350
8AA
  0
XRECORD
  5
8AD
102
{ACAD_REACTORS
330
C
102
}
330
C
100
AcDbXrecord
280
     1
  1
DWGPROPS COOKIE
  2

  3

  4

  6

  7

  8
joanne.taylor
  9

300
=
301
=
302
=
303
=
304
=
305
=
306
=
307
=
308
=
309
=
 40
0.0038588888888889
 41
2455156.629926852
 42
2457931.416018553
  1

 90
        0
  0
DICTIONARY
  5
17B
102
{ACAD_REACTORS
330
17A
102
}
330
17A
100
AcDbDictionary
281
     1
  0
SORTENTSTABLE
  5
1BC
102
{ACAD_REACTORS
330
15D
102
}
330
15D
100
AcDbSortentsTable
330
1F
  0
XRECORD
  5
8AF
102
{ACAD_REACTORS
330
8AE
102
}
330
8AE
100
AcDbXrecord
280
     1
340
A0
  0
ACDBDETAILVIEWSTYLE
  5
1E5
102
{ACAD_XDICTIONARY
360
8ED
102
}
102
{ACAD_REACTORS
330
1E4
102
}
330
1E4
100
AcDbModelDocViewStyle
 70
     0
  3
Imperial24
290
     0
100
AcDbDetailViewStyle
 70
     0
 71
     0
 90
        3
 71
     1
340
11
 40
0.24
340
0
 40
0.24
300

 40
0.36
280
     3
 71
     2
340
16
 90
       25
 71
     3
340
11
 40
0.24
 90
        1
 40
0.75
 90
        1
300
%<\AcVar ViewType \f "%tc1">% %<\AcVar ViewDetailId>%\PSCALE %<\AcVar ViewScale \f "%sn">%
 71
     4
340
16
 90
       25
340
16
 90
       25
280
     0
  0
ACDBDETAILVIEWSTYLE
  5
2AC
102
{ACAD_XDICTIONARY
360
8F1
102
}
102
{ACAD_REACTORS
330
1E4
102
}
330
1E4
100
AcDbModelDocViewStyle
 70
     0
  3
Metric50
290
     0
100
AcDbDetailViewStyle
 70
     0
 71
     0
 90
        3
 71
     1
340
11
 40
5.0
340
0
 40
5.0
300

 40
0.0
280
     1
 71
     2
340
16
 90
       25
 71
     3
340
11
 40
5.0
 90
        0
 40
15.0
 90
        1
300
%<\AcVar ViewDetailId>% (%<\AcVar ViewScale \f "%sn">%)
 71
     4
340
16
 90
       25
340
16
 90
       25
280
     0
  0
LAYOUT
  5
59
102
{ACAD_XDICTIONARY
360
8B2
102
}
102
{ACAD_REACTORS
330
1A
102
}
330
1A
100
AcDbPlotSettings
  1

  2
None
  4

  6

 40
0.0
 41
0.0
 42
0.0
 43
0.0
 44
0.0
 45
0.0
 46
0.0
 47
0.0
 48
0.0
 49
0.0
140
0.0
141
0.0
142
1.0
143
1.0
 70
   688
 72
     0
 73
     0
 74
     5
  7

 75
    16
147
1.0
148
0.0
149
0.0
100
AcDbLayout
  1
Layout1
 70
     1
 71
     1
 10
0.0
 20
0.0
 11
12.0
 21
9.0
 12
0.0
 22
0.0
 32
0.0
 14
0.0
 24
0.0
 34
0.0
 15
0.0
 25
0.0
 35
0.0
146
0.0
 13
0.0
 23
0.0
 33
0.0
 16
1.0
 26
0.0
 36
0.0
 17
0.0
 27
1.0
 37
0.0
 76
     0
330
58
  0
LAYOUT
  5
5E
102
{ACAD_XDICTIONARY
360
8B4
102
}
102
{ACAD_REACTORS
330
1A
102
}
330
1A
100
AcDbPlotSettings
  1

  2
None
  4

  6

 40
0.0
 41
0.0
 42
0.0
 43
0.0
 44
0.0
 45
0.0
 46
0.0
 47
0.0
 48
0.0
 49
0.0
140
0.0
141
0.0
142
1.0
143
1.0
 70
   688
 72
     0
 73
     0
 74
     5
  7

 75
    16
147
1.0
148
0.0
149
0.0
100
AcDbLayout
  1
Layout2
 70
     1
 71
     2
 10
0.0
 20
0.0
 11
12.0
 21
9.0
 12
0.0
 22
0.0
 32
0.0
 14
0.0
 24
0.0
 34
0.0
 15
0.0
 25
0.0
 35
0.0
146
0.0
 13
0.0
 23
0.0
 33
0.0
 16
1.0
 26
0.0
 36
0.0
 17
0.0
 27
1.0
 37
0.0
 76
     0
330
5D
  0
LAYOUT
  5
22
102
{ACAD_XDICTIONARY
360
8B0
102
}
102
{ACAD_REACTORS
330
1A
102
}
330
1A
100
AcDbPlotSettings
  1

  2
none_device
  4
ANSI_A_(8.50_x_11.00_Inches)
  6

 40
6.349999904632567
 41
19.04999923706055
 42
6.350006103515625
 43
19.04998779296875
 44
215.8999938964844
 45
279.3999938964844
 46
0.0
 47
0.0
 48
0.0
 49
0.0
140
0.0
141
0.0
142
1.0
143
2.584895464708373
 70
 11952
 72
     0
 73
     1
 74
     0
  7

 75
     0
147
0.3868628397755418
148
0.0
149
0.0
100
AcDbLayout
  1
Model
 70
     1
 71
     0
 10
0.0
 20
0.0
 11
12.0
 21
9.0
 12
0.0
 22
0.0
 32
0.0
 14
0.0
 24
0.0
 34
0.0
 15
0.0
 25
0.0
 35
0.0
146
0.0
 13
0.0
 23
0.0
 33
0.0
 16
1.0
 26
0.0
 36
0.0
 17
0.0
 27
1.0
 37
0.0
 76
     0
330
1F
331
94
  0
MATERIAL
  5
97
102
{ACAD_XDICTIONARY
360
269
102
}
102
{ACAD_REACTORS
330
72
102
}
330
72
100
AcDbMaterial
  1
ByBlock
  0
MATERIAL
  5
96
102
{ACAD_XDICTIONARY
360
267
102
}
102
{ACAD_REACTORS
330
72
102
}
330
72
100
AcDbMaterial
  1
ByLayer
  0
MATERIAL
  5
98
102
{ACAD_XDICTIONARY
360
110
102
}
102
{ACAD_REACTORS
330
72
102
}
330
72
100
AcDbMaterial
  1
Global
 43
0.0208000000566244
 43
0.0
 43
0.0
 43
0.0
 43
0.0
 43
0.0208000000566244
 43
0.0
 43
0.0
 43
0.0
 43
0.0
 43
1.0
 43
0.0
 43
0.0
 43
0.0
 43
0.0
 43
1.0
 49
0.0208000000566244
 49
0.0
 49
0.0
 49
0.0
 49
0.0
 49
0.0208000000566244
 49
0.0
 49
0.0
 49
0.0
 49
0.0
 49
1.0
 49
0.0
 49
0.0
 49
0.0
 49
0.0
 49
1.0
142
0.0208000000566244
142
0.0
142
0.0
142
0.0
142
0.0
142
0.0208000000566244
142
0.0
142
0.0
142
0.0
142
0.0
142
1.0
142
0.0
142
0.0
142
0.0
142
0.0
142
1.0
144
0.0208000000566244
144
0.0
144
0.0
144
0.0
144
0.0
144
0.0208000000566244
144
0.0
144
0.0
144
0.0
144
0.0
144
1.0
144
0.0
144
0.0
144
0.0
144
0.0
144
1.0
1001
ACAD
1070
    -1
1070
     3
1070
     0
1000

1071
        0
1070
     0
  0
MLEADERSTYLE
  5
D8
102
{ACAD_REACTORS
330
D7
102
}
330
D7
100
AcDbMLeaderStyle
170
     2
171
     1
172
     0
 90
        2
 40
0.0
 41
0.0
173
     1
 91
-1056964608
340
14
 92
       -2
290
     1
 42
0.09
291
     1
 43
0.36
  3
Standard
 44
0.18
300

342
11
174
     1
178
     1
175
     1
176
     0
 93
-1056964608
 45
0.18
292
     0
297
     0
 46
0.18
 94
-1056964608
 47
1.0
 49
1.0
140
1.0
293
     1
141
0.0
294
     1
177
     0
142
1.0
295
     0
296
     0
143
0.125
1001
ACAD_MLEADERVER
1070
     2
  0
MLINESTYLE
  5
18
102
{ACAD_REACTORS
330
17
102
}
330
17
100
AcDbMlineStyle
  2
STANDARD
 70
     0
  3

 62
   256
 51
90.0
 52
90.0
 71
     2
 49
0.5
 62
   256
  6
BYLAYER
 49
-0.5
 62
   256
  6
BYLAYER
  0
ACDBPLACEHOLDER
  5
F
102
{ACAD_REACTORS
330
E
102
}
330
E
  0
SCALE
  5
B7
102
{ACAD_REACTORS
330
B6
102
}
330
B6
100
AcDbScale
 70
     0
300
1:1
140
1.0
141
1.0
290
     1
  0
SCALE
  5
124
102
{ACAD_REACTORS
330
B6
102
}
330
B6
100
AcDbScale
 70
     0
300
1:2
140
1.0
141
2.0
290
     0
  0
SCALE
  5
125
102
{ACAD_REACTORS
330
B6
102
}
330
B6
100
AcDbScale
 70
     0
300
1:4
140
1.0
141
4.0
290
     0
  0
SCALE
  5
126
102
{ACAD_REACTORS
330
B6
102
}
330
B6
100
AcDbScale
 70
     0
300
1:5
140
1.0
141
5.0
290
     0
  0
SCALE
  5
127
102
{ACAD_REACTORS
330
B6
102
}
330
B6
100
AcDbScale
 70
     0
300
1:8
140
1.0
141
8.0
290
     0
  0
SCALE
  5
128
102
{ACAD_REACTORS
330
B6
102
}
330
B6
100
AcDbScale
 70
     0
300
1:10
140
1.0
141
10.0
290
     0
  0
SCALE
  5
129
102
{ACAD_REACTORS
330
B6
102
}
330
B6
100
AcDbScale
 70
     0
300
1:16
140
1.0
141
16.0
290
     0
  0
SCALE
  5
12A
102
{ACAD_REACTORS
330
B6
102
}
330
B6
100
AcDbScale
 70
     0
300
1:20
140
1.0
141
20.0
290
     0
  0
SCALE
  5
12B
102
{ACAD_REACTORS
330
B6
102
}
330
B6
100
AcDbScale
 70
     0
300
1:30
140
1.0
141
30.0
290
     0
  0
SCALE
  5
12C
102
{ACAD_REACTORS
330
B6
102
}
330
B6
100
AcDbScale
 70
     0
300
1:40
140
1.0
141
40.0
290
     0
  0
SCALE
  5
12D
102
{ACAD_REACTORS
330
B6
102
}
330
B6
100
AcDbScale
 70
     0
300
1:50
140
1.0
141
50.0
290
     0
  0
SCALE
  5
12E
102
{ACAD_REACTORS
330
B6
102
}
330
B6
100
AcDbScale
 70
     0
300
1:100
140
1.0
141
100.0
290
     0
  0
SCALE
  5
12F
102
{ACAD_REACTORS
330
B6
102
}
330
B6
100
AcDbScale
 70
     0
300
2:1
140
2.0
141
1.0
290
     0
  0
SCALE
  5
130
102
{ACAD_REACTORS
330
B6
102
}
330
B6
100
AcDbScale
 70
     0
300
4:1
140
4.0
141
1.0
290
     0
  0
SCALE
  5
131
102
{ACAD_REACTORS
330
B6
102
}
330
B6
100
AcDbScale
 70
     0
300
8:1
140
8.0
141
1.0
290
     0
  0
SCALE
  5
132
102
{ACAD_REACTORS
330
B6
102
}
330
B6
100
AcDbScale
 70
     0
300
10:1
140
10.0
141
1.0
290
     0
  0
SCALE
  5
133
102
{ACAD_REACTORS
330
B6
102
}
330
B6
100
AcDbScale
 70
     0
300
100:1
140
100.0
141
1.0
290
     0
  0
SCALE
  5
134
102
{ACAD_REACTORS
330
B6
102
}
330
B6
100
AcDbScale
 70
     0
300
1/128" = 1'-0"
140
0.0078125
141
12.0
290
     0
  0
SCALE
  5
135
102
{ACAD_REACTORS
330
B6
102
}
330
B6
100
AcDbScale
 70
     0
300
1/64" = 1'-0"
140
0.015625
141
12.0
290
     0
  0
SCALE
  5
136
102
{ACAD_REACTORS
330
B6
102
}
330
B6
100
AcDbScale
 70
     0
300
1/32" = 1'-0"
140
0.03125
141
12.0
290
     0
  0
SCALE
  5
137
102
{ACAD_REACTORS
330
B6
102
}
330
B6
100
AcDbScale
 70
     0
300
1/16" = 1'-0"
140
0.0625
141
12.0
290
     0
  0
SCALE
  5
138
102
{ACAD_REACTORS
330
B6
102
}
330
B6
100
AcDbScale
 70
     0
300
3/32" = 1'-0"
140
0.09375
141
12.0
290
     0
  0
SCALE
  5
139
102
{ACAD_REACTORS
330
B6
102
}
330
B6
100
AcDbScale
 70
     0
300
1/8" = 1'-0"
140
0.125
141
12.0
290
     0
  0
SCALE
  5
13A
102
{ACAD_REACTORS
330
B6
102
}
330
B6
100
AcDbScale
 70
     0
300
3/16" = 1'-0"
140
0.1875
141
12.0
290
     0
  0
SCALE
  5
13B
102
{ACAD_REACTORS
330
B6
102
}
330
B6
100
AcDbScale
 70
     0
300
1/4" = 1'-0"
140
0.25
141
12.0
290
     0
  0
SCALE
  5
13C
102
{ACAD_REACTORS
330
B6
102
}
330
B6
100
AcDbScale
 70
     0
300
3/8" = 1'-0"
140
0.375
141
12.0
290
     0
  0
SCALE
  5
13D
102
{ACAD_REACTORS
330
B6
102
}
330
B6
100
AcDbScale
 70
     0
300
1/2" = 1'-0"
140
0.5
141
12.0
290
     0
  0
SCALE
  5
13E
102
{ACAD_REACTORS
330
B6
102
}
330
B6
100
AcDbScale
 70
     0
300
3/4" = 1'-0"
140
0.75
141
12.0
290
     0
  0
SCALE
  5
13F
102
{ACAD_REACTORS
330
B6
102
}
330
B6
100
AcDbScale
 70
     0
300
1" = 1'-0"
140
1.0
141
12.0
290
     0
  0
SCALE
  5
140
102
{ACAD_REACTORS
330
B6
102
}
330
B6
100
AcDbScale
 70
     0
300
1-1/2" = 1'-0"
140
1.5
141
12.0
290
     0
  0
SCALE
  5
141
102
{ACAD_REACTORS
330
B6
102
}
330
B6
100
AcDbScale
 70
     0
300
3" = 1'-0"
140
3.0
141
12.0
290
     0
  0
SCALE
  5
142
102
{ACAD_REACTORS
330
B6
102
}
330
B6
100
AcDbScale
 70
     0
300
6" = 1'-0"
140
6.0
141
12.0
290
     0
  0
SCALE
  5
143
102
{ACAD_REACTORS
330
B6
102
}
330
B6
100
AcDbScale
 70
     0
300
1'-0" = 1'-0"
140
12.0
141
12.0
290
     0
  0
ACDBSECTIONVIEWSTYLE
  5
1E3
102
{ACAD_XDICTIONARY
360
8EB
102
}
102
{ACAD_REACTORS
330
1E2
102
}
330
1E2
100
AcDbModelDocViewStyle
 70
     0
  3
Imperial24
290
     0
100
AcDbSectionViewStyle
 70
     0
 71
     0
 90
       78
 71
     1
340
11
 40
0.24
340
0
340
0
 40
0.24
300
I, O, Q, S, X, Z
 40
0.48
 90
        3
 40
0.18
 90
        1
 71
     2
340
16
 90
       25
340
16
 90
       50
 40
0.24
 40
0.0
 40
0.24
 71
     3
340
11
 40
0.24
 90
        1
 40
0.75
 90
        1
300
%<\AcVar ViewType \f "%tc1">% %<\AcVar ViewSectionStartId>%-%<\AcVar ViewSectionEndId>%\PSCALE %<\AcVar ViewScale \f "%sn">%
 71
     4
300
ANSI31
 40
1.0
 90
        0
290
     0
290
     0
 90
        6
 40
0.0
 40
1.570796326794896
 40
0.2617993877991494
 40
1.308996938995747
 40
-0.2617993877991494
 40
1.832595714594045
  0
ACDBSECTIONVIEWSTYLE
  5
2AB
102
{ACAD_XDICTIONARY
360
8EF
102
}
102
{ACAD_REACTORS
330
1E2
102
}
330
1E2
100
AcDbModelDocViewStyle
 70
     0
  3
Metric50
290
     0
100
AcDbSectionViewStyle
 70
     0
 71
     0
 90
      102
 71
     1
340
11
 40
5.0
340
0
340
0
 40
5.0
300
I, O, Q, S, X, Z
 40
10.0
 90
        0
 40
2.5
 90
        0
 71
     2
340
16
 90
       25
340
16
 90
       50
 40
5.0
 40
2.5
 40
5.0
 71
     3
340
11
 40
5.0
 90
        0
 40
15.0
 90
        1
300
%<\AcVar ViewSectionStartId>%-%<\AcVar ViewSectionEndId>% (%<\AcVar ViewScale \f "%sn">%)
 71
     4
300
ANSI31
 40
1.0
 90
        0
290
     0
290
     0
 90
        6
 40
0.0
 40
1.570796326794896
 40
0.2617993877991494
 40
1.308996938995747
 40
-0.2617993877991494
 40
1.832595714594046
  0
TABLESTYLE
  5
87
102
{ACAD_XDICTIONARY
360
104
102
}
102
{ACAD_REACTORS
330
86
102
}
330
86
100
AcDbTableStyle
  3
Standard
 70
     0
 71
     0
 40
0.06
 41
0.06
280
     0
281
     0
  7
Standard
140
0.18
170
     2
 62
     0
 63
     7
283
     0
274
    -2
284
     1
 64
     0
275
    -2
285
     1
 65
     0
276
    -2
286
     1
 66
     0
277
    -2
287
     1
 67
     0
278
    -2
288
     1
 68
     0
279
    -2
289
     1
 69
     0
  7
Standard
140
0.25
170
     5
 62
     0
 63
     7
283
     0
274
    -2
284
     1
 64
     0
275
    -2
285
     1
 65
     0
276
    -2
286
     1
 66
     0
277
    -2
287
     1
 67
     0
278
    -2
288
     1
 68
     0
279
    -2
289
     1
 69
     0
  7
Standard
140
0.18
170
     5
 62
     0
 63
     7
283
     0
274
    -2
284
     1
 64
     0
275
    -2
285
     1
 65
     0
276
    -2
286
     1
 66
     0
277
    -2
287
     1
 67
     0
278
    -2
288
     1
 68
     0
279
    -2
289
     1
 69
     0
  0
VISUALSTYLE
  5
9F
102
{ACAD_XDICTIONARY
360
8C1
102
}
102
{ACAD_REACTORS
330
99
102
}
330
99
100
AcDbVisualStyle
  2

 70
     4
 71
     0
 72
     2
 73
     1
 90
        0
 40
-0.6
 41
-30.0
 62
     5
 63
     7
 74
     1
 91
        4
 64
     7
 65
   257
 75
     1
175
     1
 42
1.0
 92
        0
 66
   257
 43
1.0
 76
     1
 77
     6
 78
     2
 67
     7
 79
     5
170
     0
171
     0
290
     0
174
     0
 93
        1
 44
0.0
173
     0
291
     0
 45
0.0
1001
ACAD
1000
AcDbSavedByObjectVersion
1070
     0
  0
VISUALSTYLE
  5
A1
102
{ACAD_XDICTIONARY
360
8C5
102
}
102
{ACAD_REACTORS
330
99
102
}
330
99
100
AcDbVisualStyle
  2

 70
     6
 71
     1
 72
     2
 73
     2
 90
        0
 40
-0.6
 41
-30.0
 62
     5
 63
     7
 74
     2
 91
        2
 64
     7
 65
   257
 75
     2
175
     1
 42
40.0
 92
        0
 66
   257
 43
1.0
 76
     1
 77
     6
 78
     2
 67
     7
 79
     3
170
     0
171
     0
290
     0
174
     0
 93
        1
 44
0.0
173
     0
291
     0
 45
0.0
1001
ACAD
1000
AcDbSavedByObjectVersion
1070
     0
  0
VISUALSTYLE
  5
A0
102
{ACAD_XDICTIONARY
360
8C3
102
}
102
{ACAD_REACTORS
330
99
102
}
330
99
100
AcDbVisualStyle
  2

 70
     5
 71
     0
 72
     2
 73
     1
 90
        0
 40
-0.6
 41
-30.0
 62
     5
 63
     7
 74
     1
 91
        4
 64
     7
 65
   257
 75
     1
175
     1
 42
1.0
 92
        0
 66
   257
 43
1.0
 76
     1
 77
     6
 78
     2
 67
     7
 79
     5
170
     0
171
     0
290
     0
174
     0
 93
        1
 44
0.0
173
     0
291
     0
 45
0.0
1001
ACAD
1000
AcDbSavedByObjectVersion
1070
     0
  0
VISUALSTYLE
  5
9E
102
{ACAD_XDICTIONARY
360
8BF
102
}
102
{ACAD_REACTORS
330
99
102
}
330
99
100
AcDbVisualStyle
  2

 70
     7
 71
     1
 72
     0
 73
     1
 90
        0
 40
-0.6
 41
-30.0
 62
     5
 63
     7
 74
     0
 91
        4
 64
     7
 65
   257
 75
     1
175
     1
 42
1.0
 92
        8
 66
     7
 43
1.0
 76
     1
 77
     6
 78
     2
 67
     7
 79
     5
170
     0
171
     0
290
     0
174
     0
 93
        1
 44
0.0
173
     0
291
     1
 45
0.0
1001
ACAD
1000
AcDbSavedByObjectVersion
1070
     0
  0
VISUALSTYLE
  5
A5
102
{ACAD_XDICTIONARY
360
8CD
102
}
102
{ACAD_REACTORS
330
99
102
}
330
99
100
AcDbVisualStyle
  2

 70
    12
 71
     2
 72
     2
 73
     1
 90
        0
 40
-0.6
 41
-30.0
 62
     5
 63
     7
 74
     1
 91
        4
 64
     7
 65
   257
 75
     1
175
     1
 42
1.0
 92
        8
 66
     7
 43
1.0
 76
     1
 77
     6
 78
     2
 67
     7
 79
     5
170
     0
171
     0
290
     0
174
     0
 93
        1
 44
50.0
173
     0
291
     1
 45
0.0
1001
ACAD
1000
AcDbSavedByObjectVersion
1070
     0
  0
VISUALSTYLE
  5
A9
102
{ACAD_XDICTIONARY
360
8D5
102
}
102
{ACAD_REACTORS
330
99
102
}
330
99
100
AcDbVisualStyle
  2

 70
    16
 71
     2
 72
     2
 73
     3
 90
        0
 40
-0.6
 41
-30.0
 62
     5
 63
     8
 74
     1
 91
        4
 64
     7
 65
   257
 75
     1
175
     1
 42
1.0
 92
        8
 66
     8
 43
1.0
 76
     1
 77
     6
 78
     2
 67
     7
 79
     5
170
     0
171
     0
290
     0
174
     0
 93
        1
 44
0.0
173
     0
291
     1
 45
0.0
1001
ACAD
1000
AcDbSavedByObjectVersion
1070
     0
  0
VISUALSTYLE
  5
A2
102
{ACAD_XDICTIONARY
360
8C7
102
}
102
{ACAD_REACTORS
330
99
102
}
330
99
100
AcDbVisualStyle
  2

 70
     9
 71
     3
 72
     2
 73
     1
 90
        0
 40
-0.6
 41
-30.0
 62
     5
 63
     7
 74
     2
 91
        2
 64
     7
 65
   257
 75
     1
175
     1
 42
40.0
 92
        8
 66
     7
 43
1.0
 76
     1
 77
     6
 78
     2
 67
     7
 79
     3
170
     0
171
     0
290
     0
174
     0
 93
        1
 44
0.0
173
     0
291
     0
 45
0.0
1001
ACAD
1000
AcDbSavedByObjectVersion
1070
     0
  0
VISUALSTYLE
  5
A4
102
{ACAD_XDICTIONARY
360
8CB
102
}
102
{ACAD_REACTORS
330
99
102
}
330
99
100
AcDbVisualStyle
  2

 70
    11
 71
     2
 72
     2
 73
     1
 90
        0
 40
-0.6
 41
-30.0
 62
     5
 63
     7
 74
     1
 91
        4
 64
     7
 65
   257
 75
     1
175
     1
 42
1.0
 92
        8
 66
     7
 43
1.0
 76
     1
 77
     6
 78
     2
 67
     7
 79
     5
170
     0
171
     0
290
     0
174
     0
 93
        1
 44
-50.0
173
     0
291
     1
 45
0.0
1001
ACAD
1000
AcDbSavedByObjectVersion
1070
     0
  0
VISUALSTYLE
  5
1E1
102
{ACAD_XDICTIONARY
360
8E9
102
}
102
{ACAD_REACTORS
330
99
102
}
330
99
100
AcDbVisualStyle
  2

 70
    22
 71
     2
 72
     2
 73
     0
 90
        0
 40
-0.6
 41
-30.0
 62
     5
 63
     7
 74
     1
 91
        4
 64
     7
 65
   257
 75
     1
175
     1
 42
1.0
 92
        8
 66
     7
 43
1.0
 76
     1
 77
     6
 78
     2
 67
     7
 79
     5
170
     0
171
     0
290
     0
174
     0
 93
        1
 44
0.0
173
     0
291
     1
 45
0.0
1001
ACAD
1000
AcDbSavedByObjectVersion
1070
     0
  0
VISUALSTYLE
  5
A8
102
{ACAD_XDICTIONARY
360
8D3
102
}
102
{ACAD_REACTORS
330
99
102
}
330
99
100
AcDbVisualStyle
  2

 70
    15
 71
     2
 72
     2
 73
     1
 90
        0
 40
-0.6
 41
-30.0
 62
     5
 63
     7
 74
     1
 91
        4
 64
     7
 65
   257
 75
     1
175
     1
 42
1.0
 92
        8
 66
     7
 43
1.0
 76
     1
 77
     6
 78
     2
 67
     7
 79
     5
170
     0
171
     0
290
     0
174
     0
 93
        1
 44
0.0
173
     0
291
     1
 45
0.0
1001
ACAD
1000
AcDbSavedByObjectVersion
1070
     0
  0
VISUALSTYLE
  5
9A
102
{ACAD_XDICTIONARY
360
8B7
102
}
102
{ACAD_REACTORS
330
99
102
}
330
99
100
AcDbVisualStyle
  2

 70
     0
 71
     2
 72
     1
 73
     1
 90
        2
 40
-0.6
 41
30.0
 62
     5
 63
     7
 74
     0
 91
        4
 64
     7
 65
   257
 75
     1
175
     1
 42
1.0
 92
        8
 66
     7
 43
1.0
 76
     1
 77
     6
 78
     2
 67
     7
 79
     5
170
     0
171
     0
290
     0
174
     0
 93
        1
 44
0.0
173
     0
291
     1
 45
0.0
1001
ACAD
1000
AcDbSavedByObjectVersion
1070
     0
  0
VISUALSTYLE
  5
9B
102
{ACAD_XDICTIONARY
360
8B9
102
}
102
{ACAD_REACTORS
330
99
102
}
330
99
100
AcDbVisualStyle
  2

 70
     1
 71
     2
 72
     1
 73
     1
 90
        2
 40
-0.6
 41
30.0
 62
     5
 63
     7
 74
     1
 91
        4
 64
     7
 65
   257
 75
     1
175
     1
 42
1.0
 92
        0
 66
   257
 43
1.0
 76
     1
 77
     6
 78
     2
 67
     7
 79
     5
170
     0
171
     0
290
     0
174
     0
 93
        1
 44
0.0
173
     0
291
     1
 45
0.0
1001
ACAD
1000
AcDbSavedByObjectVersion
1070
     0
  0
VISUALSTYLE
  5
9C
102
{ACAD_XDICTIONARY
360
8BB
102
}
102
{ACAD_REACTORS
330
99
102
}
330
99
100
AcDbVisualStyle
  2

 70
     2
 71
     2
 72
     2
 73
     1
 90
        2
 40
-0.6
 41
30.0
 62
     5
 63
     7
 74
     0
 91
        4
 64
     7
 65
   257
 75
     1
175
     1
 42
1.0
 92
        0
 66
     7
 43
1.0
 76
     1
 77
     6
 78
     2
 67
     7
 79
     5
170
     0
171
     0
290
     0
174
     0
 93
        1
 44
0.0
173
     0
291
     1
 45
0.0
1001
ACAD
1000
AcDbSavedByObjectVersion
1070
     0
  0
VISUALSTYLE
  5
9D
102
{ACAD_XDICTIONARY
360
8BD
102
}
102
{ACAD_REACTORS
330
99
102
}
330
99
100
AcDbVisualStyle
  2

 70
     3
 71
     2
 72
     2
 73
     1
 90
        2
 40
-0.6
 41
30.0
 62
     5
 63
     7
 74
     1
 91
        4
 64
     7
 65
   257
 75
     1
175
     1
 42
1.0
 92
        0
 66
   257
 43
1.0
 76
     1
 77
     6
 78
     2
 67
     7
 79
     5
170
     0
171
     0
290
     0
174
     0
 93
        1
 44
0.0
173
     0
291
     1
 45
0.0
1001
ACAD
1000
AcDbSavedByObjectVersion
1070
     0
  0
VISUALSTYLE
  5
1D9
102
{ACAD_XDICTIONARY
360
8D9
102
}
102
{ACAD_REACTORS
330
99
102
}
330
99
100
AcDbVisualStyle
  2

 70
     6
 71
     1
 72
     2
 73
     2
 90
        0
 40
-0.6
 41
-30.0
 62
     5
 63
     7
 74
     2
 91
        2
 64
     7
 65
   257
 75
     2
175
     1
 42
40.0
 92
        0
 66
   257
 43
1.0
 76
     1
 77
     6
 78
     2
 67
     7
 79
     3
170
     0
171
     0
290
     0
174
     0
 93
        1
 44
0.0
173
     0
291
     0
 45
0.0
1001
ACAD
1000
AcDbSavedByObjectVersion
1070
     0
  0
VISUALSTYLE
  5
1DF
102
{ACAD_XDICTIONARY
360
8E5
102
}
102
{ACAD_REACTORS
330
99
102
}
330
99
100
AcDbVisualStyle
  2

 70
    20
 71
     2
 72
     2
 73
     0
 90
        0
 40
-0.6
 41
-30.0
 62
     5
 63
     7
 74
     1
 91
        4
 64
     7
 65
   257
 75
     1
175
     1
 42
1.0
 92
       10
 66
     7
 43
1.0
 76
     1
 77
     6
 78
     2
 67
     7
 79
     5
170
     0
171
     0
290
     0
174
     0
 93
        1
 44
0.0
173
     0
291
     1
 45
0.0
1001
ACAD
1000
AcDbSavedByObjectVersion
1070
     0
  0
VISUALSTYLE
  5
A7
102
{ACAD_XDICTIONARY
360
8D1
102
}
102
{ACAD_REACTORS
330
99
102
}
330
99
100
AcDbVisualStyle
  2

 70
    14
 71
     2
 72
     2
 73
     1
 90
        0
 40
-0.6
 41
-30.0
 62
     5
 63
     7
 74
     1
 91
        4
 64
     7
 65
   257
 75
     7
175
     7
 42
1.0
 92
        8
 66
     7
 43
1.0
 76
     1
 77
     6
 78
     2
 67
     7
 79
     5
170
     0
171
     0
290
     0
174
     0
 93
        1
 44
0.0
173
     0
291
     1
 45
0.0
1001
ACAD
1000
AcDbSavedByObjectVersion
1070
     0
  0
VISUALSTYLE
  5
1E0
102
{ACAD_XDICTIONARY
360
8E7
102
}
102
{ACAD_REACTORS
330
99
102
}
330
99
100
AcDbVisualStyle
  2

 70
    21
 71
     2
 72
     2
 73
     0
 90
        0
 40
-0.6
 41
-30.0
 62
     5
 63
     7
 74
     1
 91
        4
 64
     7
 65
   257
 75
     1
175
     1
 42
1.0
 92
        9
 66
     7
 43
1.0
 76
     1
 77
     6
 78
     2
 67
     7
 79
     5
170
     0
171
     0
290
     0
174
     0
 93
        1
 44
0.0
173
     0
291
     1
 45
0.0
1001
ACAD
1000
AcDbSavedByObjectVersion
1070
     0
  0
VISUALSTYLE
  5
A3
102
{ACAD_XDICTIONARY
360
8C9
102
}
102
{ACAD_REACTORS
330
99
102
}
330
99
100
AcDbVisualStyle
  2

 70
     8
 71
     2
 72
     2
 73
     1
 90
        0
 40
-0.6
 41
-30.0
 62
     5
 63
     7
 74
     1
 91
        0
 64
     7
 65
   257
 75
     1
175
     1
 42
1.0
 92
        8
 66
     8
 43
1.0
 76
     1
 77
     6
 78
     2
 67
     7
 79
     5
170
     0
171
     0
290
     0
174
     0
 93
       13
 44
0.0
173
     0
291
     0
 45
0.0
1001
ACAD
1000
AcDbSavedByObjectVersion
1070
     0
  0
VISUALSTYLE
  5
1DE
102
{ACAD_XDICTIONARY
360
8E3
102
}
102
{ACAD_REACTORS
330
99
102
}
330
99
100
AcDbVisualStyle
  2

 70
    27
 71
     2
 72
     2
 73
     1
 90
        2
 40
-0.6
 41
30.0
 62
     5
 63
     7
 74
     0
 91
        4
 64
     7
 65
   257
 75
     1
175
     1
 42
1.0
 92
        8
 66
   257
 43
1.0
 76
     1
 77
     6
 78
     2
 67
     8
 79
     3
170
     0
171
     0
290
     0
174
     0
 93
        5
 44
0.0
173
     0
291
     0
 45
0.0
1001
ACAD
1000
AcDbSavedByObjectVersion
1070
     0
  0
VISUALSTYLE
  5
1DD
102
{ACAD_XDICTIONARY
360
8E1
102
}
102
{ACAD_REACTORS
330
99
102
}
330
99
100
AcDbVisualStyle
  2

 70
    26
 71
     2
 72
     2
 73
     1
 90
        2
 40
-0.6
 41
30.0
 62
     5
 63
     7
 74
     1
 91
       10
 64
     7
 65
   257
 75
     2
175
     1
 42
1.0
 92
        8
 66
   257
 43
1.0
 76
     1
 77
     6
 78
     2
 67
     7
 79
     3
170
     0
171
     0
290
     0
174
     0
 93
        5
 44
0.0
173
     0
291
     0
 45
0.0
1001
ACAD
1000
AcDbSavedByObjectVersion
1070
     0
  0
VISUALSTYLE
  5
1DA
102
{ACAD_XDICTIONARY
360
8DB
102
}
102
{ACAD_REACTORS
330
99
102
}
330
99
100
AcDbVisualStyle
  2

 70
    23
 71
     2
 72
     2
 73
     3
 90
        0
 40
-0.6
 41
-30.0
 62
     5
 63
     7
 74
     2
 91
        2
 64
     7
 65
     7
 75
     1
175
     1
 42
40.0
 92
        8
 66
     7
 43
1.0
 76
     1
 77
     6
 78
     2
 67
     7
 79
     3
170
     0
171
     0
290
     0
174
     0
 93
        1
 44
0.0
173
     0
291
     0
 45
0.0
1001
ACAD
1000
AcDbSavedByObjectVersion
1070
     0
  0
VISUALSTYLE
  5
1DB
102
{ACAD_XDICTIONARY
360
8DD
102
}
102
{ACAD_REACTORS
330
99
102
}
330
99
100
AcDbVisualStyle
  2

 70
    24
 71
     1
 72
     2
 73
     2
 90
        0
 40
-0.6
 41
-30.0
 62
     5
 63
     7
 74
     2
 91
        2
 64
     7
 65
     7
 75
     1
175
     1
 42
40.0
 92
       11
 66
     7
 43
1.0
 76
     1
 77
     6
 78
     2
 67
     7
 79
     6
170
     0
171
     0
290
     0
174
     0
 93
        1
 44
0.0
173
     0
291
     0
 45
0.0
1001
ACAD
1000
AcDbSavedByObjectVersion
1070
     0
  0
VISUALSTYLE
  5
A6
102
{ACAD_XDICTIONARY
360
8CF
102
}
102
{ACAD_REACTORS
330
99
102
}
330
99
100
AcDbVisualStyle
  2

 70
    13
 71
     2
 72
     2
 73
     1
 90
        0
 40
-0.6
 41
-30.0
 62
     5
 63
     7
 74
     1
 91
        4
 64
     7
 65
   257
 75
     1
175
     1
 42
1.0
 92
       12
 66
     7
 43
1.0
 76
     1
 77
     6
 78
     2
 67
     7
 79
     5
170
     0
171
     0
290
     0
174
     0
 93
        1
 44
0.0
173
     0
291
     1
 45
0.0
1001
ACAD
1000
AcDbSavedByObjectVersion
1070
     0
  0
VISUALSTYLE
  5
1D8
102
{ACAD_XDICTIONARY
360
8D7
102
}
102
{ACAD_REACTORS
330
99
102
}
330
99
100
AcDbVisualStyle
  2

 70
     5
 71
     0
 72
     2
 73
     0
 90
        0
 40
-0.6
 41
-30.0
 62
     5
 63
     7
 74
     1
 91
        4
 64
     7
 65
   257
 75
     1
175
     1
 42
1.0
 92
        0
 66
   257
 43
1.0
 76
     1
 77
     6
 78
     2
 67
     7
 79
     3
170
     0
171
     0
290
     0
174
     0
 93
        1
 44
0.0
173
     0
291
     0
 45
0.0
1001
ACAD
1000
AcDbSavedByObjectVersion
1070
     0
  0
VISUALSTYLE
  5
1DC
102
{ACAD_XDICTIONARY
360
8DF
102
}
102
{ACAD_REACTORS
330
99
102
}
330
99
100
AcDbVisualStyle
  2

 70
    25
 71
     2
 72
     2
 73
     1
 90
        1
 40
0.5
 41
-30.0
 62
     5
 63
     7
 74
     1
 91
        0
 64
     7
 65
   257
 75
     1
175
     1
 42
1.0
 92
        8
 66
     7
 43
1.0
 76
     1
 77
     6
 78
     2
 67
     7
 79
     3
170
     0
171
     0
290
     0
174
     0
 93
       13
 44
0.0
173
     0
291
     0
 45
0.0
1001
ACAD
1000
AcDbSavedByObjectVersion
1070
     0
  0
DICTIONARYVAR
  5
F0
102
{ACAD_REACTORS
330
66
102
}
330
66
100
DictionaryVariables
280
     0
  1
1:1
  0
DICTIONARYVAR
  5
EF
102
{ACAD_REACTORS
330
66
102
}
330
66
100
DictionaryVariables
280
     0
  1
STANDARD
  0
DICTIONARYVAR
  5
89
102
{ACAD_REACTORS
330
66
102
}
330
66
100
DictionaryVariables
280
     0
  1
STANDARD
  0
DICTIONARYVAR
  5
250
102
{ACAD_REACTORS
330
66
102
}
330
66
100
DictionaryVariables
280
     0
  1
Imperial24
  0
DICTIONARYVAR
  5
251
102
{ACAD_REACTORS
330
66
102
}
330
66
100
DictionaryVariables
280
     0
  1
Imperial24
  0
DICTIONARYVAR
  5
67
102
{ACAD_REACTORS
330
66
102
}
330
66
100
DictionaryVariables
280
     0
  1
2
  0
DICTIONARYVAR
  5
6B
102
{ACAD_REACTORS
330
66
102
}
330
66
100
DictionaryVariables
280
     0
  1
1
  0
DICTIONARYVAR
  5
255
102
{ACAD_REACTORS
330
66
102
}
330
66
100
DictionaryVariables
280
     0
  1
0
  0
DICTIONARYVAR
  5
14D
102
{ACAD_REACTORS
330
66
102
}
330
66
100
DictionaryVariables
280
     0
  1
0
  0
DICTIONARYVAR
  5
14E
102
{ACAD_REACTORS
330
66
102
}
330
66
100
DictionaryVariables
280
     0
  1
0
  0
DICTIONARYVAR
  5
253
102
{ACAD_REACTORS
330
66
102
}
330
66
100
DictionaryVariables
280
     0
  1
2
  0
DICTIONARYVAR
  5
8A8
102
{ACAD_REACTORS
330
66
102
}
330
66
100
DictionaryVariables
280
     0
  1
1.570796
  0
DICTIONARYVAR
  5
8A9
102
{ACAD_REACTORS
330
66
102
}
330
66
100
DictionaryVariables
280
     0
  1
1.570796
  0
DICTIONARYVAR
  5
252
102
{ACAD_REACTORS
330
66
102
}
330
66
100
DictionaryVariables
280
     0
  1
1
  0
DICTIONARYVAR
  5
257
102
{ACAD_REACTORS
330
66
102
}
330
66
100
DictionaryVariables
280
     0
  1
1
  0
DICTIONARYVAR
  5
254
102
{ACAD_REACTORS
330
66
102
}
330
66
100
DictionaryVariables
280
     0
  1
127
  0
DICTIONARYVAR
  5
8AA
102
{ACAD_REACTORS
330
66
102
}
330
66
100
DictionaryVariables
280
     0
  1
2
  0
DICTIONARY
  5
8ED
330
1E5
100
AcDbDictionary
280
     1
281
     1
  3
ACAD_XREC_ROUNDTRIP
360
8EE
  0
DICTIONARY
  5
8F1
330
2AC
100
AcDbDictionary
280
     1
281
     1
  3
ACAD_XREC_ROUNDTRIP
360
8F2
  0
DICTIONARY
  5
8B2
330
59
100
AcDbDictionary
280
     1
281
     1
  3
ACAD_XREC_ROUNDTRIP
360
8B3
  0
DICTIONARY
  5
8B4
330
5E
100
AcDbDictionary
280
     1
281
     1
  3
ACAD_XREC_ROUNDTRIP
360
8B5
  0
DICTIONARY
  5
8B0
330
22
100
AcDbDictionary
280
     1
281
     1
  3
ACAD_XREC_ROUNDTRIP
360
8B1
  0
DICTIONARY
  5
269
330
97
100
AcDbDictionary
280
     1
281
     1
  3
ACAD_XREC_ROUNDTRIP
360
26A
  0
DICTIONARY
  5
267
330
96
100
AcDbDictionary
280
     1
281
     1
  3
ACAD_XREC_ROUNDTRIP
360
268
  0
DICTIONARY
  5
110
330
98
100
AcDbDictionary
280
     1
281
     1
  3
ACAD_XREC_ROUNDTRIP
360
26B
  3
BUMPTILE
360
112
  3
DIFFUSETILE
360
111
  3
OPACITYTILE
360
113
  3
REFLECTIONTILE
360
114
  0
DICTIONARY
  5
8EB
330
1E3
100
AcDbDictionary
280
     1
281
     1
  3
ACAD_XREC_ROUNDTRIP
360
8EC
  0
DICTIONARY
  5
8EF
330
2AB
100
AcDbDictionary
280
     1
281
     1
  3
ACAD_XREC_ROUNDTRIP
360
8F0
  0
DICTIONARY
  5
104
330
87
100
AcDbDictionary
280
     1
281
     1
  3
ACAD_ROUNDTRIP_2008_TABLESTYLE_CELLSTYLEMAP
360
8AB
  3
ACAD_XREC_ROUNDTRIP
360
8B6
  0
DICTIONARY
  5
8C1
330
9F
100
AcDbDictionary
280
     1
281
     1
  3
ACAD_XREC_ROUNDTRIP
360
8C2
  0
DICTIONARY
  5
8C5
330
A1
100
AcDbDictionary
280
     1
281
     1
  3
ACAD_XREC_ROUNDTRIP
360
8C6
  0
DICTIONARY
  5
8C3
330
A0
100
AcDbDictionary
280
     1
281
     1
  3
ACAD_XREC_ROUNDTRIP
360
8C4
  0
DICTIONARY
  5
8BF
330
9E
100
AcDbDictionary
280
     1
281
     1
  3
ACAD_XREC_ROUNDTRIP
360
8C0
  0
DICTIONARY
  5
8CD
330
A5
100
AcDbDictionary
280
     1
281
     1
  3
ACAD_XREC_ROUNDTRIP
360
8CE
  0
DICTIONARY
  5
8D5
330
A9
100
AcDbDictionary
280
     1
281
     1
  3
ACAD_XREC_ROUNDTRIP
360
8D6
  0
DICTIONARY
  5
8C7
330
A2
100
AcDbDictionary
280
     1
281
     1
  3
ACAD_XREC_ROUNDTRIP
360
8C8
  0
DICTIONARY
  5
8CB
330
A4
100
AcDbDictionary
280
     1
281
     1
  3
ACAD_XREC_ROUNDTRIP
360
8CC
  0
DICTIONARY
  5
8E9
330
1E1
100
AcDbDictionary
280
     1
281
     1
  3
ACAD_XREC_ROUNDTRIP
360
8EA
  0
DICTIONARY
  5
8D3
330
A8
100
AcDbDictionary
280
     1
281
     1
  3
ACAD_XREC_ROUNDTRIP
360
8D4
  0
DICTIONARY
  5
8B7
330
9A
100
AcDbDictionary
280
     1
281
     1
  3
ACAD_XREC_ROUNDTRIP
360
8B8
  0
DICTIONARY
  5
8B9
330
9B
100
AcDbDictionary
280
     1
281
     1
  3
ACAD_XREC_ROUNDTRIP
360
8BA
  0
DICTIONARY
  5
8BB
330
9C
100
AcDbDictionary
280
     1
281
     1
  3
ACAD_XREC_ROUNDTRIP
360
8BC
  0
DICTIONARY
  5
8BD
330
9D
100
AcDbDictionary
280
     1
281
     1
  3
ACAD_XREC_ROUNDTRIP
360
8BE
  0
DICTIONARY
  5
8D9
330
1D9
100
AcDbDictionary
280
     1
281
     1
  3
ACAD_XREC_ROUNDTRIP
360
8DA
  0
DICTIONARY
  5
8E5
330
1DF
100
AcDbDictionary
280
     1
281
     1
  3
ACAD_XREC_ROUNDTRIP
360
8E6
  0
DICTIONARY
  5
8D1
330
A7
100
AcDbDictionary
280
     1
281
     1
  3
ACAD_XREC_ROUNDTRIP
360
8D2
  0
DICTIONARY
  5
8E7
330
1E0
100
AcDbDictionary
280
     1
281
     1
  3
ACAD_XREC_ROUNDTRIP
360
8E8
  0
DICTIONARY
  5
8C9
330
A3
100
AcDbDictionary
280
     1
281
     1
  3
ACAD_XREC_ROUNDTRIP
360
8CA
  0
DICTIONARY
  5
8E3
330
1DE
100
AcDbDictionary
280
     1
281
     1
  3
ACAD_XREC_ROUNDTRIP
360
8E4
  0
DICTIONARY
  5
8E1
330
1DD
100
AcDbDictionary
280
     1
281
     1
  3
ACAD_XREC_ROUNDTRIP
360
8E2
  0
DICTIONARY
  5
8DB
330
1DA
100
AcDbDictionary
280
     1
281
     1
  3
ACAD_XREC_ROUNDTRIP
360
8DC
  0
DICTIONARY
  5
8DD
330
1DB
100
AcDbDictionary
280
     1
281
     1
  3
ACAD_XREC_ROUNDTRIP
360
8DE
  0
DICTIONARY
  5
8CF
330
A6
100
AcDbDictionary
280
     1
281
     1
  3
ACAD_XREC_ROUNDTRIP
360
8D0
  0
DICTIONARY
  5
8D7
330
1D8
100
AcDbDictionary
280
     1
281
     1
  3
ACAD_XREC_ROUNDTRIP
360
8D8
  0
DICTIONARY
  5
8DF
330
1DC
100
AcDbDictionary
280
     1
281
     1
  3
ACAD_XREC_ROUNDTRIP
360
8E0
  0
XRECORD
  5
8EE
102
{ACAD_REACTORS
330
8ED
102
}
330
8ED
100
AcDbXrecord
280
     1
102
DISPLAYNAME
  1
Imperial24
102
FLAGS
 90
        0
  0
XRECORD
  5
8F2
102
{ACAD_REACTORS
330
8F1
102
}
330
8F1
100
AcDbXrecord
280
     1
102
DISPLAYNAME
  1
Metric50
102
FLAGS
 90
        0
  0
XRECORD
  5
8B3
102
{ACAD_REACTORS
330
8B2
102
}
330
8B2
100
AcDbXrecord
280
     1
102
SHADEPLOT
 70
     0
102
SHADEPLOTRESLEVEL
 70
     2
102
SHADEPLOTCUSTOMDPI
 70
   300
  0
XRECORD
  5
8B5
102
{ACAD_REACTORS
330
8B4
102
}
330
8B4
100
AcDbXrecord
280
     1
102
SHADEPLOT
 70
     0
102
SHADEPLOTRESLEVEL
 70
     2
102
SHADEPLOTCUSTOMDPI
 70
   300
  0
XRECORD
  5
8B1
102
{ACAD_REACTORS
330
8B0
102
}
330
8B0
100
AcDbXrecord
280
     1
102
SHADEPLOT
 70
     0
102
SHADEPLOTRESLEVEL
 70
     2
102
SHADEPLOTCUSTOMDPI
 70
   300
  0
XRECORD
  5
26A
102
{ACAD_REACTORS
330
269
102
}
330
269
100
AcDbXrecord
280
     1
102
MATERIAL
148
0.0
149
0.0
149
0.0
 93
        0
 94
      127
282
     0
 72
     1
 77
     1
171
     1
175
     1
179
     1
273
     0
  0
XRECORD
  5
268
102
{ACAD_REACTORS
330
267
102
}
330
267
100
AcDbXrecord
280
     1
102
MATERIAL
148
0.0
149
0.0
149
0.0
 93
        0
 94
      127
282
     0
 72
     1
 77
     1
171
     1
175
     1
179
     1
273
     0
  0
XRECORD
  5
26B
102
{ACAD_REACTORS
330
110
102
}
330
110
100
AcDbXrecord
280
     1
102
MATERIAL
148
0.0
149
0.0
149
0.0
 93
        0
 94
      127
282
     0
 72
     1
 77
     1
171
     1
175
     1
179
     1
273
     0
  0
XRECORD
  5
112
102
{ACAD_REACTORS
330
110
102
}
330
110
100
AcDbXrecord
280
     1
270
     1
271
     1
  0
XRECORD
  5
111
102
{ACAD_REACTORS
330
110
102
}
330
110
100
AcDbXrecord
280
     1
270
     1
271
     1
  0
XRECORD
  5
113
102
{ACAD_REACTORS
330
110
102
}
330
110
100
AcDbXrecord
280
     1
270
     1
271
     1
  0
XRECORD
  5
114
102
{ACAD_REACTORS
330
110
102
}
330
110
100
AcDbXrecord
280
     1
270
     1
271
     1
  0
XRECORD
  5
8EC
102
{ACAD_REACTORS
330
8EB
102
}
330
8EB
100
AcDbXrecord
280
     1
102
DISPLAYNAME
  1
Imperial24
102
FLAGS
 90
        0
  0
XRECORD
  5
8F0
102
{ACAD_REACTORS
330
8EF
102
}
330
8EF
100
AcDbXrecord
280
     1
102
DISPLAYNAME
  1
Metric50
102
FLAGS
 90
        0
  0
CELLSTYLEMAP
  5
8AB
102
{ACAD_REACTORS
330
104
102
}
330
104
100
AcDbCellStyleMap
 90
        3
300
CELLSTYLE
  1
TABLEFORMAT_BEGIN
 90
        5
170
     1
 91
        0
 92
    32768
 62
   257
 93
        1
300
CONTENTFORMAT
  1
CONTENTFORMAT_BEGIN
 90
        0
 91
        0
 92
      512
 93
        0
300

 40
0.0
140
1.0
 94
        5
 62
     0
340
11
144
0.25
309
CONTENTFORMAT_END
171
     1
301
MARGIN
  1
CELLMARGIN_BEGIN
 40
0.06
 40
0.06
 40
0.06
 40
0.06
 40
0.18
 40
0.18
309
CELLMARGIN_END
 94
        6
 95
        1
302
GRIDFORMAT
  1
GRIDFORMAT_BEGIN
 90
        0
 91
        1
 62
     0
 92
       -2
340
0
 93
        0
 40
0.045
309
GRIDFORMAT_END
 95
        2
302
GRIDFORMAT
  1
GRIDFORMAT_BEGIN
 90
        0
 91
        1
 62
     0
 92
       -2
340
0
 93
        0
 40
0.045
309
GRIDFORMAT_END
 95
        4
302
GRIDFORMAT
  1
GRIDFORMAT_BEGIN
 90
        0
 91
        1
 62
     0
 92
       -2
340
0
 93
        0
 40
0.045
309
GRIDFORMAT_END
 95
        8
302
GRIDFORMAT
  1
GRIDFORMAT_BEGIN
 90
        0
 91
        1
 62
     0
 92
       -2
340
0
 93
        0
 40
0.045
309
GRIDFORMAT_END
 95
       16
302
GRIDFORMAT
  1
GRIDFORMAT_BEGIN
 90
        0
 91
        1
 62
     0
 92
       -2
340
0
 93
        0
 40
0.045
309
GRIDFORMAT_END
 95
       32
302
GRIDFORMAT
  1
GRIDFORMAT_BEGIN
 90
        0
 91
        1
 62
     0
 92
       -2
340
0
 93
        0
 40
0.045
309
GRIDFORMAT_END
309
TABLEFORMAT_END
  1
CELLSTYLE_BEGIN
 90
        1
 91
        1
300
_TITLE
309
CELLSTYLE_END
300
CELLSTYLE
  1
TABLEFORMAT_BEGIN
 90
        5
170
     1
 91
        0
 92
        0
 62
   257
 93
        1
300
CONTENTFORMAT
  1
CONTENTFORMAT_BEGIN
 90
        0
 91
        0
 92
      512
 93
        0
300

 40
0.0
140
1.0
 94
        5
 62
     0
340
11
144
0.18
309
CONTENTFORMAT_END
171
     1
301
MARGIN
  1
CELLMARGIN_BEGIN
 40
0.06
 40
0.06
 40
0.06
 40
0.06
 40
0.18
 40
0.18
309
CELLMARGIN_END
 94
        6
 95
        1
302
GRIDFORMAT
  1
GRIDFORMAT_BEGIN
 90
        0
 91
        1
 62
     0
 92
       -2
340
0
 93
        0
 40
0.045
309
GRIDFORMAT_END
 95
        2
302
GRIDFORMAT
  1
GRIDFORMAT_BEGIN
 90
        0
 91
        1
 62
     0
 92
       -2
340
0
 93
        0
 40
0.045
309
GRIDFORMAT_END
 95
        4
302
GRIDFORMAT
  1
GRIDFORMAT_BEGIN
 90
        0
 91
        1
 62
     0
 92
       -2
340
0
 93
        0
 40
0.045
309
GRIDFORMAT_END
 95
        8
302
GRIDFORMAT
  1
GRIDFORMAT_BEGIN
 90
        0
 91
        1
 62
     0
 92
       -2
340
0
 93
        0
 40
0.045
309
GRIDFORMAT_END
 95
       16
302
GRIDFORMAT
  1
GRIDFORMAT_BEGIN
 90
        0
 91
        1
 62
     0
 92
       -2
340
0
 93
        0
 40
0.045
309
GRIDFORMAT_END
 95
       32
302
GRIDFORMAT
  1
GRIDFORMAT_BEGIN
 90
        0
 91
        1
 62
     0
 92
       -2
340
0
 93
        0
 40
0.045
309
GRIDFORMAT_END
309
TABLEFORMAT_END
  1
CELLSTYLE_BEGIN
 90
        2
 91
        1
300
_HEADER
309
CELLSTYLE_END
300
CELLSTYLE
  1
TABLEFORMAT_BEGIN
 90
        5
170
     1
 91
        0
 92
        0
 62
   257
 93
        1
300
CONTENTFORMAT
  1
CONTENTFORMAT_BEGIN
 90
        0
 91
        0
 92
      512
 93
        0
300

 40
0.0
140
1.0
 94
        2
 62
     0
340
11
144
0.18
309
CONTENTFORMAT_END
171
     1
301
MARGIN
  1
CELLMARGIN_BEGIN
 40
0.06
 40
0.06
 40
0.06
 40
0.06
 40
0.18
 40
0.18
309
CELLMARGIN_END
 94
        6
 95
        1
302
GRIDFORMAT
  1
GRIDFORMAT_BEGIN
 90
        0
 91
        1
 62
     0
 92
       -2
340
0
 93
        0
 40
0.045
309
GRIDFORMAT_END
 95
        2
302
GRIDFORMAT
  1
GRIDFORMAT_BEGIN
 90
        0
 91
        1
 62
     0
 92
       -2
340
0
 93
        0
 40
0.045
309
GRIDFORMAT_END
 95
        4
302
GRIDFORMAT
  1
GRIDFORMAT_BEGIN
 90
        0
 91
        1
 62
     0
 92
       -2
340
0
 93
        0
 40
0.045
309
GRIDFORMAT_END
 95
        8
302
GRIDFORMAT
  1
GRIDFORMAT_BEGIN
 90
        0
 91
        1
 62
     0
 92
       -2
340
0
 93
        0
 40
0.045
309
GRIDFORMAT_END
 95
       16
302
GRIDFORMAT
  1
GRIDFORMAT_BEGIN
 90
        0
 91
        1
 62
     0
 92
       -2
340
0
 93
        0
 40
0.045
309
GRIDFORMAT_END
 95
       32
302
GRIDFORMAT
  1
GRIDFORMAT_BEGIN
 90
        0
 91
        1
 62
     0
 92
       -2
340
0
 93
        0
 40
0.045
309
GRIDFORMAT_END
309
TABLEFORMAT_END
  1
CELLSTYLE_BEGIN
 90
        3
 91
        2
300
_DATA
309
CELLSTYLE_END
  0
XRECORD
  5
8B6
102
{ACAD_REACTORS
330
104
102
}
330
104
100
AcDbXrecord
280
     1
102
ACAD_ROUNDTRIP_PRE2007_TABLESTYLE
 90
      512
 91
        0
  1

 92
      512
 93
        0
  2

 94
      512
 95
        0
  3

  0
XRECORD
  5
8C2
102
{ACAD_REACTORS
330
8C1
102
}
330
8C1
100
AcDbXrecord
280
     1
102
RTVSPost2010Prop28
280
     1
102
RTVSPost2010PropOp28
 70
     1
102
RTVSPost2010Prop29
280
     1
102
RTVSPost2010PropOp29
 70
     1
102
RTVSPost2010Prop30
280
     0
102
RTVSPost2010PropOp30
 70
     1
102
RTVSPost2010Prop31
280
     0
102
RTVSPost2010PropOp31
 70
     1
102
RTVSPost2010Prop32
280
     0
102
RTVSPost2010PropOp32
 70
     1
102
RTVSPost2010Prop33
280
     0
102
RTVSPost2010PropOp33
 70
     1
102
RTVSPost2010Prop34
280
     0
102
RTVSPost2010PropOp34
 70
     1
102
RTVSPost2010Prop35
280
     0
102
RTVSPost2010PropOp35
 70
     1
102
RTVSPost2010Prop36
280
     0
102
RTVSPost2010PropOp36
 70
     1
102
RTVSPost2010Prop37
 90
       50
102
RTVSPost2010PropOp37
 70
     1
102
RTVSPost2010Prop38
140
0.0
102
RTVSPost2010PropOp38
 70
     1
102
RTVSPost2010Prop39
140
1.0
102
RTVSPost2010PropOp39
 70
     1
102
RTVSPost2010Prop40
 90
        0
102
RTVSPost2010PropOp40
 70
     1
102
RTVSPost2010Prop41ColorIndex
 90
       18
102
RTVSPost2010Prop41ColorRGB
 90
        0
102
RTVSPost2010PropOp41
 70
     1
102
RTVSPost2010Prop42
 90
       50
102
RTVSPost2010PropOp42
 70
     1
102
RTVSPost2010Prop43
 90
        3
102
RTVSPost2010PropOp43
 70
     1
102
RTVSPost2010Prop44ColorIndex
 90
        5
102
RTVSPost2010Prop44ColorRGB
 90
      255
102
RTVSPost2010PropOp44
 70
     1
102
RTVSPost2010Prop45
280
     0
102
RTVSPost2010PropOp45
 70
     1
102
RTVSPost2010Prop46
 90
       50
102
RTVSPost2010PropOp46
 70
     1
102
RTVSPost2010Prop47
 90
       50
102
RTVSPost2010PropOp47
 70
     1
102
RTVSPost2010Prop48
 90
       50
102
RTVSPost2010PropOp48
 70
     1
102
RTVSPost2010Prop49
280
     0
102
RTVSPost2010PropOp49
 70
     1
102
RTVSPost2010Prop50
 90
       50
102
RTVSPost2010PropOp50
 70
     1
102
RTVSPost2010Prop51ColorIndex
 90
      256
102
RTVSPost2010Prop51ColorRGB
 90
-16777216
102
RTVSPost2010PropOp51
 70
     0
102
RTVSPost2010Prop52
140
1.0
102
RTVSPost2010PropOp52
 70
     0
102
RTVSPost2010Prop53
 90
        2
102
RTVSPost2010PropOp53
 70
     1
102
RTVSPost2010Prop54
  1
strokes_ogs.tif
102
RTVSPost2010PropOp54
 70
     1
102
RTVSPost2010Prop55
280
     0
102
RTVSPost2010PropOp55
 70
     1
102
RTVSPost2010Prop56
140
1.0
102
RTVSPost2010PropOp56
 70
     1
102
RTVSPost2010Prop57
140
1.0
102
RTVSPost2010PropOp57
 70
     1
102
RTVSPropertyOp0
 70
     1
102
RTVSPropertyOp1
 70
     1
102
RTVSPropertyOp2
 70
     1
102
RTVSPropertyOp3
 70
     1
102
RTVSPropertyOp4
 70
     1
102
RTVSPropertyOp5
 70
     1
102
RTVSPropertyOp6
 70
     1
102
RTVSPropertyOp7
 70
     1
102
RTVSPropertyOp8
 70
     1
102
RTVSPropertyOp9
 70
     1
102
RTVSPropertyOp10
 70
     1
102
RTVSPropertyOp11
 70
     1
102
RTVSPropertyOp12
 70
     1
102
RTVSPropertyOp13
 70
     1
102
RTVSPropertyOp14
 70
     1
102
RTVSPropertyOp15
 70
     1
102
RTVSPropertyOp16
 70
     1
102
RTVSPropertyOp17
 70
     1
102
RTVSPropertyOp18
 70
     1
102
RTVSPropertyOp19
 70
     1
102
RTVSPropertyOp20
 70
     1
102
RTVSPropertyOp21
 70
     1
102
RTVSPropertyOp22
 70
     1
102
RTVSPropertyOp23
 70
     1
102
RTVSPropertyOp24
 70
     1
102
RTVSPropertyOp25
 70
     1
102
RTVSPropertyOp26
 70
     1
102
RTVSPropertyOp27
 70
     1
102
RTVSPropertyOp28
 70
     1
102
RTVSPropertyOp29
 70
     1
102
RTVSPropertyOp30
 70
     1
102
RTVSPropertyOp31
 70
     1
102
RTVSPropertyOp32
 70
     1
102
RTVSPropertyOp33
 70
     1
102
RTVSPropertyOp34
 70
     1
102
RTVSPropertyOp35
 70
     1
102
RTVSPropertyOp36
 70
     1
102
RTVSPropertyOp37
 70
     1
102
RTVSPropertyOp38
 70
     1
102
RTVSPropertyOp39
 70
     1
102
RTVSPropertyOp40
 70
     1
102
RTVSPropertyOp41
 70
     1
102
RTVSPropertyOp42
 70
     1
102
RTVSPropertyOp43
 70
     1
102
RTVSPropertyOp44
 70
     1
102
RTVSPropertyOp45
 70
     1
102
RTVSPropertyOp46
 70
     1
102
RTVSPropertyOp47
 70
     1
102
RTVSPropertyOp48
 70
     1
102
RTVSPropertyOp49
 70
     1
102
RTVSPropertyOp50
 70
     1
102
RTVSPropertyOp51
 70
     0
102
RTVSPropertyOp52
 70
     0
102
RTVSPropertyOp53
 70
     1
102
RTVSPropertyOp54
 70
     1
102
RTVSPropertyOp55
 70
     1
102
RTVSPropertyOp56
 70
     1
102
RTVSPropertyOp57
 70
     1
102
RTVSPropertyOp58
 70
     1
102
RTVSPropertyOp59
 70
     1
102
RTVSPropertyOp60
 70
     1
102
RTVSPropertyOp61
 70
     1
102
RTVSPropertyOp62
 70
     1
  0
XRECORD
  5
8C6
102
{ACAD_REACTORS
330
8C5
102
}
330
8C5
100
AcDbXrecord
280
     1
102
RTVSPost2010Prop28
280
     0
102
RTVSPost2010PropOp28
 70
     1
102
RTVSPost2010Prop29
280
     1
102
RTVSPost2010PropOp29
 70
     1
102
RTVSPost2010Prop30
280
     1
102
RTVSPost2010PropOp30
 70
     1
102
RTVSPost2010Prop31
280
     0
102
RTVSPost2010PropOp31
 70
     1
102
RTVSPost2010Prop32
280
     0
102
RTVSPost2010PropOp32
 70
     1
102
RTVSPost2010Prop33
280
     0
102
RTVSPost2010PropOp33
 70
     1
102
RTVSPost2010Prop34
280
     0
102
RTVSPost2010PropOp34
 70
     1
102
RTVSPost2010Prop35
280
     0
102
RTVSPost2010PropOp35
 70
     1
102
RTVSPost2010Prop36
280
     0
102
RTVSPost2010PropOp36
 70
     1
102
RTVSPost2010Prop37
 90
       50
102
RTVSPost2010PropOp37
 70
     1
102
RTVSPost2010Prop38
140
0.0
102
RTVSPost2010PropOp38
 70
     1
102
RTVSPost2010Prop39
140
1.0
102
RTVSPost2010PropOp39
 70
     1
102
RTVSPost2010Prop40
 90
        0
102
RTVSPost2010PropOp40
 70
     1
102
RTVSPost2010Prop41ColorIndex
 90
       18
102
RTVSPost2010Prop41ColorRGB
 90
        0
102
RTVSPost2010PropOp41
 70
     1
102
RTVSPost2010Prop42
 90
       50
102
RTVSPost2010PropOp42
 70
     1
102
RTVSPost2010Prop43
 90
        3
102
RTVSPost2010PropOp43
 70
     1
102
RTVSPost2010Prop44ColorIndex
 90
        5
102
RTVSPost2010Prop44ColorRGB
 90
      255
102
RTVSPost2010PropOp44
 70
     1
102
RTVSPost2010Prop45
280
     0
102
RTVSPost2010PropOp45
 70
     1
102
RTVSPost2010Prop46
 90
       50
102
RTVSPost2010PropOp46
 70
     1
102
RTVSPost2010Prop47
 90
       50
102
RTVSPost2010PropOp47
 70
     1
102
RTVSPost2010Prop48
 90
       50
102
RTVSPost2010PropOp48
 70
     1
102
RTVSPost2010Prop49
280
     0
102
RTVSPost2010PropOp49
 70
     1
102
RTVSPost2010Prop50
 90
       50
102
RTVSPost2010PropOp50
 70
     1
102
RTVSPost2010Prop51ColorIndex
 90
      256
102
RTVSPost2010Prop51ColorRGB
 90
-16777216
102
RTVSPost2010PropOp51
 70
     0
102
RTVSPost2010Prop52
140
1.0
102
RTVSPost2010PropOp52
 70
     0
102
RTVSPost2010Prop53
 90
        2
102
RTVSPost2010PropOp53
 70
     1
102
RTVSPost2010Prop54
  1
strokes_ogs.tif
102
RTVSPost2010PropOp54
 70
     1
102
RTVSPost2010Prop55
280
     0
102
RTVSPost2010PropOp55
 70
     1
102
RTVSPost2010Prop56
140
1.0
102
RTVSPost2010PropOp56
 70
     1
102
RTVSPost2010Prop57
140
1.0
102
RTVSPost2010PropOp57
 70
     1
102
RTVSPropertyOp0
 70
     1
102
RTVSPropertyOp1
 70
     1
102
RTVSPropertyOp2
 70
     1
102
RTVSPropertyOp3
 70
     1
102
RTVSPropertyOp4
 70
     1
102
RTVSPropertyOp5
 70
     1
102
RTVSPropertyOp6
 70
     1
102
RTVSPropertyOp7
 70
     1
102
RTVSPropertyOp8
 70
     1
102
RTVSPropertyOp9
 70
     1
102
RTVSPropertyOp10
 70
     1
102
RTVSPropertyOp11
 70
     1
102
RTVSPropertyOp12
 70
     1
102
RTVSPropertyOp13
 70
     1
102
RTVSPropertyOp14
 70
     1
102
RTVSPropertyOp15
 70
     1
102
RTVSPropertyOp16
 70
     1
102
RTVSPropertyOp17
 70
     1
102
RTVSPropertyOp18
 70
     1
102
RTVSPropertyOp19
 70
     1
102
RTVSPropertyOp20
 70
     1
102
RTVSPropertyOp21
 70
     1
102
RTVSPropertyOp22
 70
     1
102
RTVSPropertyOp23
 70
     1
102
RTVSPropertyOp24
 70
     1
102
RTVSPropertyOp25
 70
     1
102
RTVSPropertyOp26
 70
     1
102
RTVSPropertyOp27
 70
     1
102
RTVSPropertyOp28
 70
     1
102
RTVSPropertyOp29
 70
     1
102
RTVSPropertyOp30
 70
     1
102
RTVSPropertyOp31
 70
     1
102
RTVSPropertyOp32
 70
     1
102
RTVSPropertyOp33
 70
     1
102
RTVSPropertyOp34
 70
     1
102
RTVSPropertyOp35
 70
     1
102
RTVSPropertyOp36
 70
     1
102
RTVSPropertyOp37
 70
     1
102
RTVSPropertyOp38
 70
     1
102
RTVSPropertyOp39
 70
     1
102
RTVSPropertyOp40
 70
     1
102
RTVSPropertyOp41
 70
     1
102
RTVSPropertyOp42
 70
     1
102
RTVSPropertyOp43
 70
     1
102
RTVSPropertyOp44
 70
     1
102
RTVSPropertyOp45
 70
     1
102
RTVSPropertyOp46
 70
     1
102
RTVSPropertyOp47
 70
     1
102
RTVSPropertyOp48
 70
     1
102
RTVSPropertyOp49
 70
     1
102
RTVSPropertyOp50
 70
     1
102
RTVSPropertyOp51
 70
     0
102
RTVSPropertyOp52
 70
     0
102
RTVSPropertyOp53
 70
     1
102
RTVSPropertyOp54
 70
     1
102
RTVSPropertyOp55
 70
     1
102
RTVSPropertyOp56
 70
     1
102
RTVSPropertyOp57
 70
     1
102
RTVSPropertyOp58
 70
     1
102
RTVSPropertyOp59
 70
     1
102
RTVSPropertyOp60
 70
     1
102
RTVSPropertyOp61
 70
     1
102
RTVSPropertyOp62
 70
     1
  0
XRECORD
  5
8C4
102
{ACAD_REACTORS
330
8C3
102
}
330
8C3
100
AcDbXrecord
280
     1
102
RTVSPost2010Prop28
280
     0
102
RTVSPost2010PropOp28
 70
     1
102
RTVSPost2010Prop29
280
     1
102
RTVSPost2010PropOp29
 70
     1
102
RTVSPost2010Prop30
280
     1
102
RTVSPost2010PropOp30
 70
     1
102
RTVSPost2010Prop31
280
     0
102
RTVSPost2010PropOp31
 70
     1
102
RTVSPost2010Prop32
280
     0
102
RTVSPost2010PropOp32
 70
     1
102
RTVSPost2010Prop33
280
     0
102
RTVSPost2010PropOp33
 70
     1
102
RTVSPost2010Prop34
280
     0
102
RTVSPost2010PropOp34
 70
     1
102
RTVSPost2010Prop35
280
     0
102
RTVSPost2010PropOp35
 70
     1
102
RTVSPost2010Prop36
280
     0
102
RTVSPost2010PropOp36
 70
     1
102
RTVSPost2010Prop37
 90
       50
102
RTVSPost2010PropOp37
 70
     1
102
RTVSPost2010Prop38
140
0.0
102
RTVSPost2010PropOp38
 70
     1
102
RTVSPost2010Prop39
140
1.0
102
RTVSPost2010PropOp39
 70
     1
102
RTVSPost2010Prop40
 90
        0
102
RTVSPost2010PropOp40
 70
     1
102
RTVSPost2010Prop41ColorIndex
 90
       18
102
RTVSPost2010Prop41ColorRGB
 90
        0
102
RTVSPost2010PropOp41
 70
     1
102
RTVSPost2010Prop42
 90
       50
102
RTVSPost2010PropOp42
 70
     1
102
RTVSPost2010Prop43
 90
        3
102
RTVSPost2010PropOp43
 70
     1
102
RTVSPost2010Prop44ColorIndex
 90
        5
102
RTVSPost2010Prop44ColorRGB
 90
      255
102
RTVSPost2010PropOp44
 70
     1
102
RTVSPost2010Prop45
280
     0
102
RTVSPost2010PropOp45
 70
     1
102
RTVSPost2010Prop46
 90
       50
102
RTVSPost2010PropOp46
 70
     1
102
RTVSPost2010Prop47
 90
       50
102
RTVSPost2010PropOp47
 70
     1
102
RTVSPost2010Prop48
 90
       50
102
RTVSPost2010PropOp48
 70
     1
102
RTVSPost2010Prop49
280
     0
102
RTVSPost2010PropOp49
 70
     1
102
RTVSPost2010Prop50
 90
       50
102
RTVSPost2010PropOp50
 70
     1
102
RTVSPost2010Prop51ColorIndex
 90
      256
102
RTVSPost2010Prop51ColorRGB
 90
-16777216
102
RTVSPost2010PropOp51
 70
     0
102
RTVSPost2010Prop52
140
1.0
102
RTVSPost2010PropOp52
 70
     0
102
RTVSPost2010Prop53
 90
        2
102
RTVSPost2010PropOp53
 70
     1
102
RTVSPost2010Prop54
  1
strokes_ogs.tif
102
RTVSPost2010PropOp54
 70
     1
102
RTVSPost2010Prop55
280
     0
102
RTVSPost2010PropOp55
 70
     1
102
RTVSPost2010Prop56
140
1.0
102
RTVSPost2010PropOp56
 70
     1
102
RTVSPost2010Prop57
140
1.0
102
RTVSPost2010PropOp57
 70
     1
102
RTVSPropertyOp0
 70
     1
102
RTVSPropertyOp1
 70
     1
102
RTVSPropertyOp2
 70
     1
102
RTVSPropertyOp3
 70
     1
102
RTVSPropertyOp4
 70
     1
102
RTVSPropertyOp5
 70
     1
102
RTVSPropertyOp6
 70
     1
102
RTVSPropertyOp7
 70
     1
102
RTVSPropertyOp8
 70
     1
102
RTVSPropertyOp9
 70
     1
102
RTVSPropertyOp10
 70
     1
102
RTVSPropertyOp11
 70
     1
102
RTVSPropertyOp12
 70
     1
102
RTVSPropertyOp13
 70
     1
102
RTVSPropertyOp14
 70
     1
102
RTVSPropertyOp15
 70
     1
102
RTVSPropertyOp16
 70
     1
102
RTVSPropertyOp17
 70
     1
102
RTVSPropertyOp18
 70
     1
102
RTVSPropertyOp19
 70
     1
102
RTVSPropertyOp20
 70
     1
102
RTVSPropertyOp21
 70
     1
102
RTVSPropertyOp22
 70
     1
102
RTVSPropertyOp23
 70
     1
102
RTVSPropertyOp24
 70
     1
102
RTVSPropertyOp25
 70
     1
102
RTVSPropertyOp26
 70
     1
102
RTVSPropertyOp27
 70
     1
102
RTVSPropertyOp28
 70
     1
102
RTVSPropertyOp29
 70
     1
102
RTVSPropertyOp30
 70
     1
102
RTVSPropertyOp31
 70
     1
102
RTVSPropertyOp32
 70
     1
102
RTVSPropertyOp33
 70
     1
102
RTVSPropertyOp34
 70
     1
102
RTVSPropertyOp35
 70
     1
102
RTVSPropertyOp36
 70
     1
102
RTVSPropertyOp37
 70
     1
102
RTVSPropertyOp38
 70
     1
102
RTVSPropertyOp39
 70
     1
102
RTVSPropertyOp40
 70
     1
102
RTVSPropertyOp41
 70
     1
102
RTVSPropertyOp42
 70
     1
102
RTVSPropertyOp43
 70
     1
102
RTVSPropertyOp44
 70
     1
102
RTVSPropertyOp45
 70
     1
102
RTVSPropertyOp46
 70
     1
102
RTVSPropertyOp47
 70
     1
102
RTVSPropertyOp48
 70
     1
102
RTVSPropertyOp49
 70
     1
102
RTVSPropertyOp50
 70
     1
102
RTVSPropertyOp51
 70
     0
102
RTVSPropertyOp52
 70
     0
102
RTVSPropertyOp53
 70
     1
102
RTVSPropertyOp54
 70
     1
102
RTVSPropertyOp55
 70
     1
102
RTVSPropertyOp56
 70
     1
102
RTVSPropertyOp57
 70
     1
102
RTVSPropertyOp58
 70
     1
102
RTVSPropertyOp59
 70
     1
102
RTVSPropertyOp60
 70
     1
102
RTVSPropertyOp61
 70
     1
102
RTVSPropertyOp62
 70
     1
  0
XRECORD
  5
8C0
102
{ACAD_REACTORS
330
8BF
102
}
330
8BF
100
AcDbXrecord
280
     1
102
RTVSPost2010Prop28
280
     0
102
RTVSPost2010PropOp28
 70
     1
102
RTVSPost2010Prop29
280
     1
102
RTVSPost2010PropOp29
 70
     1
102
RTVSPost2010Prop30
280
     1
102
RTVSPost2010PropOp30
 70
     1
102
RTVSPost2010Prop31
280
     0
102
RTVSPost2010PropOp31
 70
     1
102
RTVSPost2010Prop32
280
     0
102
RTVSPost2010PropOp32
 70
     1
102
RTVSPost2010Prop33
280
     0
102
RTVSPost2010PropOp33
 70
     1
102
RTVSPost2010Prop34
280
     0
102
RTVSPost2010PropOp34
 70
     1
102
RTVSPost2010Prop35
280
     0
102
RTVSPost2010PropOp35
 70
     1
102
RTVSPost2010Prop36
280
     0
102
RTVSPost2010PropOp36
 70
     1
102
RTVSPost2010Prop37
 90
       50
102
RTVSPost2010PropOp37
 70
     1
102
RTVSPost2010Prop38
140
0.0
102
RTVSPost2010PropOp38
 70
     1
102
RTVSPost2010Prop39
140
1.0
102
RTVSPost2010PropOp39
 70
     1
102
RTVSPost2010Prop40
 90
        0
102
RTVSPost2010PropOp40
 70
     1
102
RTVSPost2010Prop41ColorIndex
 90
       18
102
RTVSPost2010Prop41ColorRGB
 90
        0
102
RTVSPost2010PropOp41
 70
     1
102
RTVSPost2010Prop42
 90
       50
102
RTVSPost2010PropOp42
 70
     1
102
RTVSPost2010Prop43
 90
        3
102
RTVSPost2010PropOp43
 70
     1
102
RTVSPost2010Prop44ColorIndex
 90
        5
102
RTVSPost2010Prop44ColorRGB
 90
      255
102
RTVSPost2010PropOp44
 70
     1
102
RTVSPost2010Prop45
280
     0
102
RTVSPost2010PropOp45
 70
     1
102
RTVSPost2010Prop46
 90
       50
102
RTVSPost2010PropOp46
 70
     1
102
RTVSPost2010Prop47
 90
       50
102
RTVSPost2010PropOp47
 70
     1
102
RTVSPost2010Prop48
 90
       50
102
RTVSPost2010PropOp48
 70
     1
102
RTVSPost2010Prop49
280
     0
102
RTVSPost2010PropOp49
 70
     1
102
RTVSPost2010Prop50
 90
       50
102
RTVSPost2010PropOp50
 70
     1
102
RTVSPost2010Prop51ColorIndex
 90
      256
102
RTVSPost2010Prop51ColorRGB
 90
-16777216
102
RTVSPost2010PropOp51
 70
     0
102
RTVSPost2010Prop52
140
1.0
102
RTVSPost2010PropOp52
 70
     0
102
RTVSPost2010Prop53
 90
        2
102
RTVSPost2010PropOp53
 70
     1
102
RTVSPost2010Prop54
  1
strokes_ogs.tif
102
RTVSPost2010PropOp54
 70
     1
102
RTVSPost2010Prop55
280
     0
102
RTVSPost2010PropOp55
 70
     1
102
RTVSPost2010Prop56
140
1.0
102
RTVSPost2010PropOp56
 70
     1
102
RTVSPost2010Prop57
140
1.0
102
RTVSPost2010PropOp57
 70
     1
102
RTVSPropertyOp0
 70
     1
102
RTVSPropertyOp1
 70
     1
102
RTVSPropertyOp2
 70
     1
102
RTVSPropertyOp3
 70
     1
102
RTVSPropertyOp4
 70
     1
102
RTVSPropertyOp5
 70
     1
102
RTVSPropertyOp6
 70
     1
102
RTVSPropertyOp7
 70
     1
102
RTVSPropertyOp8
 70
     1
102
RTVSPropertyOp9
 70
     1
102
RTVSPropertyOp10
 70
     1
102
RTVSPropertyOp11
 70
     1
102
RTVSPropertyOp12
 70
     1
102
RTVSPropertyOp13
 70
     1
102
RTVSPropertyOp14
 70
     1
102
RTVSPropertyOp15
 70
     1
102
RTVSPropertyOp16
 70
     1
102
RTVSPropertyOp17
 70
     1
102
RTVSPropertyOp18
 70
     1
102
RTVSPropertyOp19
 70
     1
102
RTVSPropertyOp20
 70
     1
102
RTVSPropertyOp21
 70
     1
102
RTVSPropertyOp22
 70
     1
102
RTVSPropertyOp23
 70
     1
102
RTVSPropertyOp24
 70
     1
102
RTVSPropertyOp25
 70
     1
102
RTVSPropertyOp26
 70
     1
102
RTVSPropertyOp27
 70
     1
102
RTVSPropertyOp28
 70
     1
102
RTVSPropertyOp29
 70
     1
102
RTVSPropertyOp30
 70
     1
102
RTVSPropertyOp31
 70
     1
102
RTVSPropertyOp32
 70
     1
102
RTVSPropertyOp33
 70
     1
102
RTVSPropertyOp34
 70
     1
102
RTVSPropertyOp35
 70
     1
102
RTVSPropertyOp36
 70
     1
102
RTVSPropertyOp37
 70
     1
102
RTVSPropertyOp38
 70
     1
102
RTVSPropertyOp39
 70
     1
102
RTVSPropertyOp40
 70
     1
102
RTVSPropertyOp41
 70
     1
102
RTVSPropertyOp42
 70
     1
102
RTVSPropertyOp43
 70
     1
102
RTVSPropertyOp44
 70
     1
102
RTVSPropertyOp45
 70
     1
102
RTVSPropertyOp46
 70
     1
102
RTVSPropertyOp47
 70
     1
102
RTVSPropertyOp48
 70
     1
102
RTVSPropertyOp49
 70
     1
102
RTVSPropertyOp50
 70
     1
102
RTVSPropertyOp51
 70
     0
102
RTVSPropertyOp52
 70
     0
102
RTVSPropertyOp53
 70
     1
102
RTVSPropertyOp54
 70
     1
102
RTVSPropertyOp55
 70
     1
102
RTVSPropertyOp56
 70
     1
102
RTVSPropertyOp57
 70
     1
102
RTVSPropertyOp58
 70
     1
102
RTVSPropertyOp59
 70
     1
102
RTVSPropertyOp60
 70
     1
102
RTVSPropertyOp61
 70
     1
102
RTVSPropertyOp62
 70
     1
  0
XRECORD
  5
8CE
102
{ACAD_REACTORS
330
8CD
102
}
330
8CD
100
AcDbXrecord
280
     1
102
RTVSPost2010Prop28
280
     0
102
RTVSPost2010PropOp28
 70
     1
102
RTVSPost2010Prop29
280
     1
102
RTVSPost2010PropOp29
 70
     1
102
RTVSPost2010Prop30
280
     1
102
RTVSPost2010PropOp30
 70
     1
102
RTVSPost2010Prop31
280
     0
102
RTVSPost2010PropOp31
 70
     1
102
RTVSPost2010Prop32
280
     0
102
RTVSPost2010PropOp32
 70
     1
102
RTVSPost2010Prop33
280
     0
102
RTVSPost2010PropOp33
 70
     1
102
RTVSPost2010Prop34
280
     0
102
RTVSPost2010PropOp34
 70
     1
102
RTVSPost2010Prop35
280
     0
102
RTVSPost2010PropOp35
 70
     1
102
RTVSPost2010Prop36
280
     0
102
RTVSPost2010PropOp36
 70
     1
102
RTVSPost2010Prop37
 90
       50
102
RTVSPost2010PropOp37
 70
     1
102
RTVSPost2010Prop38
140
0.0
102
RTVSPost2010PropOp38
 70
     1
102
RTVSPost2010Prop39
140
1.0
102
RTVSPost2010PropOp39
 70
     1
102
RTVSPost2010Prop40
 90
        0
102
RTVSPost2010PropOp40
 70
     1
102
RTVSPost2010Prop41ColorIndex
 90
       18
102
RTVSPost2010Prop41ColorRGB
 90
        0
102
RTVSPost2010PropOp41
 70
     1
102
RTVSPost2010Prop42
 90
       50
102
RTVSPost2010PropOp42
 70
     1
102
RTVSPost2010Prop43
 90
        3
102
RTVSPost2010PropOp43
 70
     1
102
RTVSPost2010Prop44ColorIndex
 90
        5
102
RTVSPost2010Prop44ColorRGB
 90
      255
102
RTVSPost2010PropOp44
 70
     1
102
RTVSPost2010Prop45
280
     0
102
RTVSPost2010PropOp45
 70
     1
102
RTVSPost2010Prop46
 90
       50
102
RTVSPost2010PropOp46
 70
     1
102
RTVSPost2010Prop47
 90
       50
102
RTVSPost2010PropOp47
 70
     1
102
RTVSPost2010Prop48
 90
       50
102
RTVSPost2010PropOp48
 70
     1
102
RTVSPost2010Prop49
280
     0
102
RTVSPost2010PropOp49
 70
     1
102
RTVSPost2010Prop50
 90
       50
102
RTVSPost2010PropOp50
 70
     1
102
RTVSPost2010Prop51ColorIndex
 90
      256
102
RTVSPost2010Prop51ColorRGB
 90
-16777216
102
RTVSPost2010PropOp51
 70
     0
102
RTVSPost2010Prop52
140
1.0
102
RTVSPost2010PropOp52
 70
     0
102
RTVSPost2010Prop53
 90
        2
102
RTVSPost2010PropOp53
 70
     1
102
RTVSPost2010Prop54
  1
strokes_ogs.tif
102
RTVSPost2010PropOp54
 70
     1
102
RTVSPost2010Prop55
280
     0
102
RTVSPost2010PropOp55
 70
     1
102
RTVSPost2010Prop56
140
1.0
102
RTVSPost2010PropOp56
 70
     1
102
RTVSPost2010Prop57
140
1.0
102
RTVSPost2010PropOp57
 70
     1
102
RTVSPropertyOp0
 70
     1
102
RTVSPropertyOp1
 70
     1
102
RTVSPropertyOp2
 70
     1
102
RTVSPropertyOp3
 70
     1
102
RTVSPropertyOp4
 70
     1
102
RTVSPropertyOp5
 70
     1
102
RTVSPropertyOp6
 70
     1
102
RTVSPropertyOp7
 70
     1
102
RTVSPropertyOp8
 70
     1
102
RTVSPropertyOp9
 70
     1
102
RTVSPropertyOp10
 70
     1
102
RTVSPropertyOp11
 70
     1
102
RTVSPropertyOp12
 70
     1
102
RTVSPropertyOp13
 70
     1
102
RTVSPropertyOp14
 70
     1
102
RTVSPropertyOp15
 70
     1
102
RTVSPropertyOp16
 70
     1
102
RTVSPropertyOp17
 70
     1
102
RTVSPropertyOp18
 70
     1
102
RTVSPropertyOp19
 70
     1
102
RTVSPropertyOp20
 70
     1
102
RTVSPropertyOp21
 70
     1
102
RTVSPropertyOp22
 70
     1
102
RTVSPropertyOp23
 70
     1
102
RTVSPropertyOp24
 70
     1
102
RTVSPropertyOp25
 70
     1
102
RTVSPropertyOp26
 70
     1
102
RTVSPropertyOp27
 70
     1
102
RTVSPropertyOp28
 70
     1
102
RTVSPropertyOp29
 70
     1
102
RTVSPropertyOp30
 70
     1
102
RTVSPropertyOp31
 70
     1
102
RTVSPropertyOp32
 70
     1
102
RTVSPropertyOp33
 70
     1
102
RTVSPropertyOp34
 70
     1
102
RTVSPropertyOp35
 70
     1
102
RTVSPropertyOp36
 70
     1
102
RTVSPropertyOp37
 70
     1
102
RTVSPropertyOp38
 70
     1
102
RTVSPropertyOp39
 70
     1
102
RTVSPropertyOp40
 70
     1
102
RTVSPropertyOp41
 70
     1
102
RTVSPropertyOp42
 70
     1
102
RTVSPropertyOp43
 70
     1
102
RTVSPropertyOp44
 70
     1
102
RTVSPropertyOp45
 70
     1
102
RTVSPropertyOp46
 70
     1
102
RTVSPropertyOp47
 70
     1
102
RTVSPropertyOp48
 70
     1
102
RTVSPropertyOp49
 70
     1
102
RTVSPropertyOp50
 70
     1
102
RTVSPropertyOp51
 70
     0
102
RTVSPropertyOp52
 70
     0
102
RTVSPropertyOp53
 70
     1
102
RTVSPropertyOp54
 70
     1
102
RTVSPropertyOp55
 70
     1
102
RTVSPropertyOp56
 70
     1
102
RTVSPropertyOp57
 70
     1
102
RTVSPropertyOp58
 70
     1
102
RTVSPropertyOp59
 70
     1
102
RTVSPropertyOp60
 70
     1
102
RTVSPropertyOp61
 70
     1
102
RTVSPropertyOp62
 70
     1
  0
XRECORD
  5
8D6
102
{ACAD_REACTORS
330
8D5
102
}
330
8D5
100
AcDbXrecord
280
     1
102
RTVSPost2010Prop28
280
     0
102
RTVSPost2010PropOp28
 70
     1
102
RTVSPost2010Prop29
280
     1
102
RTVSPost2010PropOp29
 70
     1
102
RTVSPost2010Prop30
280
     1
102
RTVSPost2010PropOp30
 70
     1
102
RTVSPost2010Prop31
280
     0
102
RTVSPost2010PropOp31
 70
     1
102
RTVSPost2010Prop32
280
     0
102
RTVSPost2010PropOp32
 70
     1
102
RTVSPost2010Prop33
280
     0
102
RTVSPost2010PropOp33
 70
     1
102
RTVSPost2010Prop34
280
     0
102
RTVSPost2010PropOp34
 70
     1
102
RTVSPost2010Prop35
280
     0
102
RTVSPost2010PropOp35
 70
     1
102
RTVSPost2010Prop36
280
     0
102
RTVSPost2010PropOp36
 70
     1
102
RTVSPost2010Prop37
 90
       50
102
RTVSPost2010PropOp37
 70
     1
102
RTVSPost2010Prop38
140
0.0
102
RTVSPost2010PropOp38
 70
     1
102
RTVSPost2010Prop39
140
1.0
102
RTVSPost2010PropOp39
 70
     1
102
RTVSPost2010Prop40
 90
        0
102
RTVSPost2010PropOp40
 70
     1
102
RTVSPost2010Prop41ColorIndex
 90
       18
102
RTVSPost2010Prop41ColorRGB
 90
        0
102
RTVSPost2010PropOp41
 70
     1
102
RTVSPost2010Prop42
 90
       50
102
RTVSPost2010PropOp42
 70
     1
102
RTVSPost2010Prop43
 90
        3
102
RTVSPost2010PropOp43
 70
     1
102
RTVSPost2010Prop44ColorIndex
 90
        5
102
RTVSPost2010Prop44ColorRGB
 90
      255
102
RTVSPost2010PropOp44
 70
     1
102
RTVSPost2010Prop45
280
     0
102
RTVSPost2010PropOp45
 70
     1
102
RTVSPost2010Prop46
 90
       50
102
RTVSPost2010PropOp46
 70
     1
102
RTVSPost2010Prop47
 90
       50
102
RTVSPost2010PropOp47
 70
     1
102
RTVSPost2010Prop48
 90
       50
102
RTVSPost2010PropOp48
 70
     1
102
RTVSPost2010Prop49
280
     0
102
RTVSPost2010PropOp49
 70
     1
102
RTVSPost2010Prop50
 90
       50
102
RTVSPost2010PropOp50
 70
     1
102
RTVSPost2010Prop51ColorIndex
 90
      256
102
RTVSPost2010Prop51ColorRGB
 90
-16777216
102
RTVSPost2010PropOp51
 70
     0
102
RTVSPost2010Prop52
140
1.0
102
RTVSPost2010PropOp52
 70
     0
102
RTVSPost2010Prop53
 90
        2
102
RTVSPost2010PropOp53
 70
     1
102
RTVSPost2010Prop54
  1
strokes_ogs.tif
102
RTVSPost2010PropOp54
 70
     1
102
RTVSPost2010Prop55
280
     0
102
RTVSPost2010PropOp55
 70
     1
102
RTVSPost2010Prop56
140
1.0
102
RTVSPost2010PropOp56
 70
     1
102
RTVSPost2010Prop57
140
1.0
102
RTVSPost2010PropOp57
 70
     1
102
RTVSPropertyOp0
 70
     1
102
RTVSPropertyOp1
 70
     1
102
RTVSPropertyOp2
 70
     1
102
RTVSPropertyOp3
 70
     1
102
RTVSPropertyOp4
 70
     1
102
RTVSPropertyOp5
 70
     1
102
RTVSPropertyOp6
 70
     1
102
RTVSPropertyOp7
 70
     1
102
RTVSPropertyOp8
 70
     1
102
RTVSPropertyOp9
 70
     1
102
RTVSPropertyOp10
 70
     1
102
RTVSPropertyOp11
 70
     1
102
RTVSPropertyOp12
 70
     1
102
RTVSPropertyOp13
 70
     1
102
RTVSPropertyOp14
 70
     1
102
RTVSPropertyOp15
 70
     1
102
RTVSPropertyOp16
 70
     1
102
RTVSPropertyOp17
 70
     1
102
RTVSPropertyOp18
 70
     1
102
RTVSPropertyOp19
 70
     1
102
RTVSPropertyOp20
 70
     1
102
RTVSPropertyOp21
 70
     1
102
RTVSPropertyOp22
 70
     1
102
RTVSPropertyOp23
 70
     1
102
RTVSPropertyOp24
 70
     1
102
RTVSPropertyOp25
 70
     1
102
RTVSPropertyOp26
 70
     1
102
RTVSPropertyOp27
 70
     1
102
RTVSPropertyOp28
 70
     1
102
RTVSPropertyOp29
 70
     1
102
RTVSPropertyOp30
 70
     1
102
RTVSPropertyOp31
 70
     1
102
RTVSPropertyOp32
 70
     1
102
RTVSPropertyOp33
 70
     1
102
RTVSPropertyOp34
 70
     1
102
RTVSPropertyOp35
 70
     1
102
RTVSPropertyOp36
 70
     1
102
RTVSPropertyOp37
 70
     1
102
RTVSPropertyOp38
 70
     1
102
RTVSPropertyOp39
 70
     1
102
RTVSPropertyOp40
 70
     1
102
RTVSPropertyOp41
 70
     1
102
RTVSPropertyOp42
 70
     1
102
RTVSPropertyOp43
 70
     1
102
RTVSPropertyOp44
 70
     1
102
RTVSPropertyOp45
 70
     1
102
RTVSPropertyOp46
 70
     1
102
RTVSPropertyOp47
 70
     1
102
RTVSPropertyOp48
 70
     1
102
RTVSPropertyOp49
 70
     1
102
RTVSPropertyOp50
 70
     1
102
RTVSPropertyOp51
 70
     0
102
RTVSPropertyOp52
 70
     0
102
RTVSPropertyOp53
 70
     1
102
RTVSPropertyOp54
 70
     1
102
RTVSPropertyOp55
 70
     1
102
RTVSPropertyOp56
 70
     1
102
RTVSPropertyOp57
 70
     1
102
RTVSPropertyOp58
 70
     1
102
RTVSPropertyOp59
 70
     1
102
RTVSPropertyOp60
 70
     1
102
RTVSPropertyOp61
 70
     1
102
RTVSPropertyOp62
 70
     1
  0
XRECORD
  5
8C8
102
{ACAD_REACTORS
330
8C7
102
}
330
8C7
100
AcDbXrecord
280
     1
102
RTVSPost2010Prop28
280
     0
102
RTVSPost2010PropOp28
 70
     1
102
RTVSPost2010Prop29
280
     1
102
RTVSPost2010PropOp29
 70
     1
102
RTVSPost2010Prop30
280
     1
102
RTVSPost2010PropOp30
 70
     1
102
RTVSPost2010Prop31
280
     0
102
RTVSPost2010PropOp31
 70
     1
102
RTVSPost2010Prop32
280
     0
102
RTVSPost2010PropOp32
 70
     1
102
RTVSPost2010Prop33
280
     0
102
RTVSPost2010PropOp33
 70
     1
102
RTVSPost2010Prop34
280
     0
102
RTVSPost2010PropOp34
 70
     1
102
RTVSPost2010Prop35
280
     0
102
RTVSPost2010PropOp35
 70
     1
102
RTVSPost2010Prop36
280
     0
102
RTVSPost2010PropOp36
 70
     1
102
RTVSPost2010Prop37
 90
       50
102
RTVSPost2010PropOp37
 70
     1
102
RTVSPost2010Prop38
140
0.0
102
RTVSPost2010PropOp38
 70
     1
102
RTVSPost2010Prop39
140
1.0
102
RTVSPost2010PropOp39
 70
     1
102
RTVSPost2010Prop40
 90
        0
102
RTVSPost2010PropOp40
 70
     1
102
RTVSPost2010Prop41ColorIndex
 90
       18
102
RTVSPost2010Prop41ColorRGB
 90
        0
102
RTVSPost2010PropOp41
 70
     1
102
RTVSPost2010Prop42
 90
       50
102
RTVSPost2010PropOp42
 70
     1
102
RTVSPost2010Prop43
 90
        3
102
RTVSPost2010PropOp43
 70
     1
102
RTVSPost2010Prop44ColorIndex
 90
        5
102
RTVSPost2010Prop44ColorRGB
 90
      255
102
RTVSPost2010PropOp44
 70
     1
102
RTVSPost2010Prop45
280
     0
102
RTVSPost2010PropOp45
 70
     1
102
RTVSPost2010Prop46
 90
       50
102
RTVSPost2010PropOp46
 70
     1
102
RTVSPost2010Prop47
 90
       50
102
RTVSPost2010PropOp47
 70
     1
102
RTVSPost2010Prop48
 90
       50
102
RTVSPost2010PropOp48
 70
     1
102
RTVSPost2010Prop49
280
     0
102
RTVSPost2010PropOp49
 70
     1
102
RTVSPost2010Prop50
 90
       50
102
RTVSPost2010PropOp50
 70
     1
102
RTVSPost2010Prop51ColorIndex
 90
      256
102
RTVSPost2010Prop51ColorRGB
 90
-16777216
102
RTVSPost2010PropOp51
 70
     0
102
RTVSPost2010Prop52
140
1.0
102
RTVSPost2010PropOp52
 70
     0
102
RTVSPost2010Prop53
 90
        2
102
RTVSPost2010PropOp53
 70
     1
102
RTVSPost2010Prop54
  1
strokes_ogs.tif
102
RTVSPost2010PropOp54
 70
     1
102
RTVSPost2010Prop55
280
     0
102
RTVSPost2010PropOp55
 70
     1
102
RTVSPost2010Prop56
140
1.0
102
RTVSPost2010PropOp56
 70
     1
102
RTVSPost2010Prop57
140
1.0
102
RTVSPost2010PropOp57
 70
     1
102
RTVSPropertyOp0
 70
     1
102
RTVSPropertyOp1
 70
     1
102
RTVSPropertyOp2
 70
     1
102
RTVSPropertyOp3
 70
     1
102
RTVSPropertyOp4
 70
     1
102
RTVSPropertyOp5
 70
     1
102
RTVSPropertyOp6
 70
     1
102
RTVSPropertyOp7
 70
     1
102
RTVSPropertyOp8
 70
     1
102
RTVSPropertyOp9
 70
     1
102
RTVSPropertyOp10
 70
     1
102
RTVSPropertyOp11
 70
     1
102
RTVSPropertyOp12
 70
     1
102
RTVSPropertyOp13
 70
     1
102
RTVSPropertyOp14
 70
     1
102
RTVSPropertyOp15
 70
     1
102
RTVSPropertyOp16
 70
     1
102
RTVSPropertyOp17
 70
     1
102
RTVSPropertyOp18
 70
     1
102
RTVSPropertyOp19
 70
     1
102
RTVSPropertyOp20
 70
     1
102
RTVSPropertyOp21
 70
     1
102
RTVSPropertyOp22
 70
     1
102
RTVSPropertyOp23
 70
     1
102
RTVSPropertyOp24
 70
     1
102
RTVSPropertyOp25
 70
     1
102
RTVSPropertyOp26
 70
     1
102
RTVSPropertyOp27
 70
     1
102
RTVSPropertyOp28
 70
     1
102
RTVSPropertyOp29
 70
     1
102
RTVSPropertyOp30
 70
     1
102
RTVSPropertyOp31
 70
     1
102
RTVSPropertyOp32
 70
     1
102
RTVSPropertyOp33
 70
     1
102
RTVSPropertyOp34
 70
     1
102
RTVSPropertyOp35
 70
     1
102
RTVSPropertyOp36
 70
     1
102
RTVSPropertyOp37
 70
     1
102
RTVSPropertyOp38
 70
     1
102
RTVSPropertyOp39
 70
     1
102
RTVSPropertyOp40
 70
     1
102
RTVSPropertyOp41
 70
     1
102
RTVSPropertyOp42
 70
     1
102
RTVSPropertyOp43
 70
     1
102
RTVSPropertyOp44
 70
     1
102
RTVSPropertyOp45
 70
     1
102
RTVSPropertyOp46
 70
     1
102
RTVSPropertyOp47
 70
     1
102
RTVSPropertyOp48
 70
     1
102
RTVSPropertyOp49
 70
     1
102
RTVSPropertyOp50
 70
     1
102
RTVSPropertyOp51
 70
     0
102
RTVSPropertyOp52
 70
     0
102
RTVSPropertyOp53
 70
     1
102
RTVSPropertyOp54
 70
     1
102
RTVSPropertyOp55
 70
     1
102
RTVSPropertyOp56
 70
     1
102
RTVSPropertyOp57
 70
     1
102
RTVSPropertyOp58
 70
     1
102
RTVSPropertyOp59
 70
     1
102
RTVSPropertyOp60
 70
     1
102
RTVSPropertyOp61
 70
     1
102
RTVSPropertyOp62
 70
     1
  0
XRECORD
  5
8CC
102
{ACAD_REACTORS
330
8CB
102
}
330
8CB
100
AcDbXrecord
280
     1
102
RTVSPost2010Prop28
280
     0
102
RTVSPost2010PropOp28
 70
     1
102
RTVSPost2010Prop29
280
     1
102
RTVSPost2010PropOp29
 70
     1
102
RTVSPost2010Prop30
280
     1
102
RTVSPost2010PropOp30
 70
     1
102
RTVSPost2010Prop31
280
     0
102
RTVSPost2010PropOp31
 70
     1
102
RTVSPost2010Prop32
280
     0
102
RTVSPost2010PropOp32
 70
     1
102
RTVSPost2010Prop33
280
     0
102
RTVSPost2010PropOp33
 70
     1
102
RTVSPost2010Prop34
280
     0
102
RTVSPost2010PropOp34
 70
     1
102
RTVSPost2010Prop35
280
     0
102
RTVSPost2010PropOp35
 70
     1
102
RTVSPost2010Prop36
280
     0
102
RTVSPost2010PropOp36
 70
     1
102
RTVSPost2010Prop37
 90
       50
102
RTVSPost2010PropOp37
 70
     1
102
RTVSPost2010Prop38
140
0.0
102
RTVSPost2010PropOp38
 70
     1
102
RTVSPost2010Prop39
140
1.0
102
RTVSPost2010PropOp39
 70
     1
102
RTVSPost2010Prop40
 90
        0
102
RTVSPost2010PropOp40
 70
     1
102
RTVSPost2010Prop41ColorIndex
 90
       18
102
RTVSPost2010Prop41ColorRGB
 90
        0
102
RTVSPost2010PropOp41
 70
     1
102
RTVSPost2010Prop42
 90
       50
102
RTVSPost2010PropOp42
 70
     1
102
RTVSPost2010Prop43
 90
        3
102
RTVSPost2010PropOp43
 70
     1
102
RTVSPost2010Prop44ColorIndex
 90
        5
102
RTVSPost2010Prop44ColorRGB
 90
      255
102
RTVSPost2010PropOp44
 70
     1
102
RTVSPost2010Prop45
280
     0
102
RTVSPost2010PropOp45
 70
     1
102
RTVSPost2010Prop46
 90
       50
102
RTVSPost2010PropOp46
 70
     1
102
RTVSPost2010Prop47
 90
       50
102
RTVSPost2010PropOp47
 70
     1
102
RTVSPost2010Prop48
 90
       50
102
RTVSPost2010PropOp48
 70
     1
102
RTVSPost2010Prop49
280
     0
102
RTVSPost2010PropOp49
 70
     1
102
RTVSPost2010Prop50
 90
       50
102
RTVSPost2010PropOp50
 70
     1
102
RTVSPost2010Prop51ColorIndex
 90
      256
102
RTVSPost2010Prop51ColorRGB
 90
-16777216
102
RTVSPost2010PropOp51
 70
     0
102
RTVSPost2010Prop52
140
1.0
102
RTVSPost2010PropOp52
 70
     0
102
RTVSPost2010Prop53
 90
        2
102
RTVSPost2010PropOp53
 70
     1
102
RTVSPost2010Prop54
  1
strokes_ogs.tif
102
RTVSPost2010PropOp54
 70
     1
102
RTVSPost2010Prop55
280
     0
102
RTVSPost2010PropOp55
 70
     1
102
RTVSPost2010Prop56
140
1.0
102
RTVSPost2010PropOp56
 70
     1
102
RTVSPost2010Prop57
140
1.0
102
RTVSPost2010PropOp57
 70
     1
102
RTVSPropertyOp0
 70
     1
102
RTVSPropertyOp1
 70
     1
102
RTVSPropertyOp2
 70
     1
102
RTVSPropertyOp3
 70
     1
102
RTVSPropertyOp4
 70
     1
102
RTVSPropertyOp5
 70
     1
102
RTVSPropertyOp6
 70
     1
102
RTVSPropertyOp7
 70
     1
102
RTVSPropertyOp8
 70
     1
102
RTVSPropertyOp9
 70
     1
102
RTVSPropertyOp10
 70
     1
102
RTVSPropertyOp11
 70
     1
102
RTVSPropertyOp12
 70
     1
102
RTVSPropertyOp13
 70
     1
102
RTVSPropertyOp14
 70
     1
102
RTVSPropertyOp15
 70
     1
102
RTVSPropertyOp16
 70
     1
102
RTVSPropertyOp17
 70
     1
102
RTVSPropertyOp18
 70
     1
102
RTVSPropertyOp19
 70
     1
102
RTVSPropertyOp20
 70
     1
102
RTVSPropertyOp21
 70
     1
102
RTVSPropertyOp22
 70
     1
102
RTVSPropertyOp23
 70
     1
102
RTVSPropertyOp24
 70
     1
102
RTVSPropertyOp25
 70
     1
102
RTVSPropertyOp26
 70
     1
102
RTVSPropertyOp27
 70
     1
102
RTVSPropertyOp28
 70
     1
102
RTVSPropertyOp29
 70
     1
102
RTVSPropertyOp30
 70
     1
102
RTVSPropertyOp31
 70
     1
102
RTVSPropertyOp32
 70
     1
102
RTVSPropertyOp33
 70
     1
102
RTVSPropertyOp34
 70
     1
102
RTVSPropertyOp35
 70
     1
102
RTVSPropertyOp36
 70
     1
102
RTVSPropertyOp37
 70
     1
102
RTVSPropertyOp38
 70
     1
102
RTVSPropertyOp39
 70
     1
102
RTVSPropertyOp40
 70
     1
102
RTVSPropertyOp41
 70
     1
102
RTVSPropertyOp42
 70
     1
102
RTVSPropertyOp43
 70
     1
102
RTVSPropertyOp44
 70
     1
102
RTVSPropertyOp45
 70
     1
102
RTVSPropertyOp46
 70
     1
102
RTVSPropertyOp47
 70
     1
102
RTVSPropertyOp48
 70
     1
102
RTVSPropertyOp49
 70
     1
102
RTVSPropertyOp50
 70
     1
102
RTVSPropertyOp51
 70
     0
102
RTVSPropertyOp52
 70
     0
102
RTVSPropertyOp53
 70
     1
102
RTVSPropertyOp54
 70
     1
102
RTVSPropertyOp55
 70
     1
102
RTVSPropertyOp56
 70
     1
102
RTVSPropertyOp57
 70
     1
102
RTVSPropertyOp58
 70
     1
102
RTVSPropertyOp59
 70
     1
102
RTVSPropertyOp60
 70
     1
102
RTVSPropertyOp61
 70
     1
102
RTVSPropertyOp62
 70
     1
  0
XRECORD
  5
8EA
102
{ACAD_REACTORS
330
8E9
102
}
330
8E9
100
AcDbXrecord
280
     1
102
RTVSPost2010Prop28
280
     0
102
RTVSPost2010PropOp28
 70
     1
102
RTVSPost2010Prop29
280
     1
102
RTVSPost2010PropOp29
 70
     1
102
RTVSPost2010Prop30
280
     1
102
RTVSPost2010PropOp30
 70
     1
102
RTVSPost2010Prop31
280
     0
102
RTVSPost2010PropOp31
 70
     1
102
RTVSPost2010Prop32
280
     0
102
RTVSPost2010PropOp32
 70
     1
102
RTVSPost2010Prop33
280
     0
102
RTVSPost2010PropOp33
 70
     1
102
RTVSPost2010Prop34
280
     0
102
RTVSPost2010PropOp34
 70
     1
102
RTVSPost2010Prop35
280
     0
102
RTVSPost2010PropOp35
 70
     1
102
RTVSPost2010Prop36
280
     0
102
RTVSPost2010PropOp36
 70
     1
102
RTVSPost2010Prop37
 90
       50
102
RTVSPost2010PropOp37
 70
     0
102
RTVSPost2010Prop38
140
0.0
102
RTVSPost2010PropOp38
 70
     0
102
RTVSPost2010Prop39
140
1.0
102
RTVSPost2010PropOp39
 70
     0
102
RTVSPost2010Prop40
 90
        0
102
RTVSPost2010PropOp40
 70
     0
102
RTVSPost2010Prop41ColorIndex
 90
       18
102
RTVSPost2010Prop41ColorRGB
 90
        0
102
RTVSPost2010PropOp41
 70
     0
102
RTVSPost2010Prop42
 90
       50
102
RTVSPost2010PropOp42
 70
     0
102
RTVSPost2010Prop43
 90
        3
102
RTVSPost2010PropOp43
 70
     0
102
RTVSPost2010Prop44ColorIndex
 90
        5
102
RTVSPost2010Prop44ColorRGB
 90
      255
102
RTVSPost2010PropOp44
 70
     0
102
RTVSPost2010Prop45
280
     0
102
RTVSPost2010PropOp45
 70
     1
102
RTVSPost2010Prop46
 90
       50
102
RTVSPost2010PropOp46
 70
     0
102
RTVSPost2010Prop47
 90
       50
102
RTVSPost2010PropOp47
 70
     0
102
RTVSPost2010Prop48
 90
       50
102
RTVSPost2010PropOp48
 70
     0
102
RTVSPost2010Prop49
280
     0
102
RTVSPost2010PropOp49
 70
     1
102
RTVSPost2010Prop50
 90
       50
102
RTVSPost2010PropOp50
 70
     0
102
RTVSPost2010Prop51ColorIndex
 90
      256
102
RTVSPost2010Prop51ColorRGB
 90
-16777216
102
RTVSPost2010PropOp51
 70
     0
102
RTVSPost2010Prop52
140
1.0
102
RTVSPost2010PropOp52
 70
     0
102
RTVSPost2010Prop53
 90
        2
102
RTVSPost2010PropOp53
 70
     0
102
RTVSPost2010Prop54
  1
strokes_ogs.tif
102
RTVSPost2010PropOp54
 70
     0
102
RTVSPost2010Prop55
280
     0
102
RTVSPost2010PropOp55
 70
     1
102
RTVSPost2010Prop56
140
1.0
102
RTVSPost2010PropOp56
 70
     0
102
RTVSPost2010Prop57
140
1.0
102
RTVSPost2010PropOp57
 70
     0
102
RTVSPropertyOp0
 70
     0
102
RTVSPropertyOp1
 70
     0
102
RTVSPropertyOp2
 70
     0
102
RTVSPropertyOp3
 70
     0
102
RTVSPropertyOp4
 70
     0
102
RTVSPropertyOp5
 70
     0
102
RTVSPropertyOp6
 70
     0
102
RTVSPropertyOp7
 70
     0
102
RTVSPropertyOp8
 70
     0
102
RTVSPropertyOp9
 70
     0
102
RTVSPropertyOp10
 70
     0
102
RTVSPropertyOp11
 70
     0
102
RTVSPropertyOp12
 70
     0
102
RTVSPropertyOp13
 70
     0
102
RTVSPropertyOp14
 70
     2
102
RTVSPropertyOp15
 70
     0
102
RTVSPropertyOp16
 70
     0
102
RTVSPropertyOp17
 70
     0
102
RTVSPropertyOp18
 70
     0
102
RTVSPropertyOp19
 70
     0
102
RTVSPropertyOp20
 70
     0
102
RTVSPropertyOp21
 70
     0
102
RTVSPropertyOp22
 70
     0
102
RTVSPropertyOp23
 70
     0
102
RTVSPropertyOp24
 70
     0
102
RTVSPropertyOp25
 70
     0
102
RTVSPropertyOp26
 70
     0
102
RTVSPropertyOp27
 70
     0
102
RTVSPropertyOp28
 70
     1
102
RTVSPropertyOp29
 70
     1
102
RTVSPropertyOp30
 70
     1
102
RTVSPropertyOp31
 70
     1
102
RTVSPropertyOp32
 70
     1
102
RTVSPropertyOp33
 70
     1
102
RTVSPropertyOp34
 70
     1
102
RTVSPropertyOp35
 70
     1
102
RTVSPropertyOp36
 70
     1
102
RTVSPropertyOp37
 70
     0
102
RTVSPropertyOp38
 70
     0
102
RTVSPropertyOp39
 70
     0
102
RTVSPropertyOp40
 70
     0
102
RTVSPropertyOp41
 70
     0
102
RTVSPropertyOp42
 70
     0
102
RTVSPropertyOp43
 70
     0
102
RTVSPropertyOp44
 70
     0
102
RTVSPropertyOp45
 70
     1
102
RTVSPropertyOp46
 70
     0
102
RTVSPropertyOp47
 70
     0
102
RTVSPropertyOp48
 70
     0
102
RTVSPropertyOp49
 70
     1
102
RTVSPropertyOp50
 70
     0
102
RTVSPropertyOp51
 70
     0
102
RTVSPropertyOp52
 70
     0
102
RTVSPropertyOp53
 70
     0
102
RTVSPropertyOp54
 70
     0
102
RTVSPropertyOp55
 70
     1
102
RTVSPropertyOp56
 70
     0
102
RTVSPropertyOp57
 70
     0
102
RTVSPropertyOp58
 70
     0
102
RTVSPropertyOp59
 70
     0
102
RTVSPropertyOp60
 70
     0
102
RTVSPropertyOp61
 70
     0
102
RTVSPropertyOp62
 70
     0
  0
XRECORD
  5
8D4
102
{ACAD_REACTORS
330
8D3
102
}
330
8D3
100
AcDbXrecord
280
     1
102
RTVSPost2010Prop28
280
     0
102
RTVSPost2010PropOp28
 70
     1
102
RTVSPost2010Prop29
280
     1
102
RTVSPost2010PropOp29
 70
     1
102
RTVSPost2010Prop30
280
     1
102
RTVSPost2010PropOp30
 70
     1
102
RTVSPost2010Prop31
280
     0
102
RTVSPost2010PropOp31
 70
     1
102
RTVSPost2010Prop32
280
     0
102
RTVSPost2010PropOp32
 70
     1
102
RTVSPost2010Prop33
280
     0
102
RTVSPost2010PropOp33
 70
     1
102
RTVSPost2010Prop34
280
     0
102
RTVSPost2010PropOp34
 70
     1
102
RTVSPost2010Prop35
280
     0
102
RTVSPost2010PropOp35
 70
     1
102
RTVSPost2010Prop36
280
     0
102
RTVSPost2010PropOp36
 70
     1
102
RTVSPost2010Prop37
 90
       50
102
RTVSPost2010PropOp37
 70
     1
102
RTVSPost2010Prop38
140
0.0
102
RTVSPost2010PropOp38
 70
     1
102
RTVSPost2010Prop39
140
1.0
102
RTVSPost2010PropOp39
 70
     1
102
RTVSPost2010Prop40
 90
        0
102
RTVSPost2010PropOp40
 70
     1
102
RTVSPost2010Prop41ColorIndex
 90
       18
102
RTVSPost2010Prop41ColorRGB
 90
        0
102
RTVSPost2010PropOp41
 70
     1
102
RTVSPost2010Prop42
 90
       50
102
RTVSPost2010PropOp42
 70
     1
102
RTVSPost2010Prop43
 90
        3
102
RTVSPost2010PropOp43
 70
     1
102
RTVSPost2010Prop44ColorIndex
 90
        5
102
RTVSPost2010Prop44ColorRGB
 90
      255
102
RTVSPost2010PropOp44
 70
     1
102
RTVSPost2010Prop45
280
     0
102
RTVSPost2010PropOp45
 70
     1
102
RTVSPost2010Prop46
 90
       50
102
RTVSPost2010PropOp46
 70
     1
102
RTVSPost2010Prop47
 90
       50
102
RTVSPost2010PropOp47
 70
     1
102
RTVSPost2010Prop48
 90
       50
102
RTVSPost2010PropOp48
 70
     1
102
RTVSPost2010Prop49
280
     0
102
RTVSPost2010PropOp49
 70
     1
102
RTVSPost2010Prop50
 90
       50
102
RTVSPost2010PropOp50
 70
     1
102
RTVSPost2010Prop51ColorIndex
 90
      256
102
RTVSPost2010Prop51ColorRGB
 90
-16777216
102
RTVSPost2010PropOp51
 70
     0
102
RTVSPost2010Prop52
140
1.0
102
RTVSPost2010PropOp52
 70
     0
102
RTVSPost2010Prop53
 90
        2
102
RTVSPost2010PropOp53
 70
     1
102
RTVSPost2010Prop54
  1
strokes_ogs.tif
102
RTVSPost2010PropOp54
 70
     1
102
RTVSPost2010Prop55
280
     0
102
RTVSPost2010PropOp55
 70
     1
102
RTVSPost2010Prop56
140
1.0
102
RTVSPost2010PropOp56
 70
     1
102
RTVSPost2010Prop57
140
1.0
102
RTVSPost2010PropOp57
 70
     1
102
RTVSPropertyOp0
 70
     1
102
RTVSPropertyOp1
 70
     1
102
RTVSPropertyOp2
 70
     1
102
RTVSPropertyOp3
 70
     1
102
RTVSPropertyOp4
 70
     1
102
RTVSPropertyOp5
 70
     1
102
RTVSPropertyOp6
 70
     1
102
RTVSPropertyOp7
 70
     1
102
RTVSPropertyOp8
 70
     1
102
RTVSPropertyOp9
 70
     1
102
RTVSPropertyOp10
 70
     1
102
RTVSPropertyOp11
 70
     1
102
RTVSPropertyOp12
 70
     1
102
RTVSPropertyOp13
 70
     1
102
RTVSPropertyOp14
 70
     1
102
RTVSPropertyOp15
 70
     1
102
RTVSPropertyOp16
 70
     1
102
RTVSPropertyOp17
 70
     1
102
RTVSPropertyOp18
 70
     1
102
RTVSPropertyOp19
 70
     1
102
RTVSPropertyOp20
 70
     1
102
RTVSPropertyOp21
 70
     1
102
RTVSPropertyOp22
 70
     1
102
RTVSPropertyOp23
 70
     1
102
RTVSPropertyOp24
 70
     1
102
RTVSPropertyOp25
 70
     1
102
RTVSPropertyOp26
 70
     1
102
RTVSPropertyOp27
 70
     1
102
RTVSPropertyOp28
 70
     1
102
RTVSPropertyOp29
 70
     1
102
RTVSPropertyOp30
 70
     1
102
RTVSPropertyOp31
 70
     1
102
RTVSPropertyOp32
 70
     1
102
RTVSPropertyOp33
 70
     1
102
RTVSPropertyOp34
 70
     1
102
RTVSPropertyOp35
 70
     1
102
RTVSPropertyOp36
 70
     1
102
RTVSPropertyOp37
 70
     1
102
RTVSPropertyOp38
 70
     1
102
RTVSPropertyOp39
 70
     1
102
RTVSPropertyOp40
 70
     1
102
RTVSPropertyOp41
 70
     1
102
RTVSPropertyOp42
 70
     1
102
RTVSPropertyOp43
 70
     1
102
RTVSPropertyOp44
 70
     1
102
RTVSPropertyOp45
 70
     1
102
RTVSPropertyOp46
 70
     1
102
RTVSPropertyOp47
 70
     1
102
RTVSPropertyOp48
 70
     1
102
RTVSPropertyOp49
 70
     1
102
RTVSPropertyOp50
 70
     1
102
RTVSPropertyOp51
 70
     0
102
RTVSPropertyOp52
 70
     0
102
RTVSPropertyOp53
 70
     1
102
RTVSPropertyOp54
 70
     1
102
RTVSPropertyOp55
 70
     1
102
RTVSPropertyOp56
 70
     1
102
RTVSPropertyOp57
 70
     1
102
RTVSPropertyOp58
 70
     1
102
RTVSPropertyOp59
 70
     1
102
RTVSPropertyOp60
 70
     1
102
RTVSPropertyOp61
 70
     1
102
RTVSPropertyOp62
 70
     1
  0
XRECORD
  5
8B8
102
{ACAD_REACTORS
330
8B7
102
}
330
8B7
100
AcDbXrecord
280
     1
102
RTVSPost2010Prop28
280
     0
102
RTVSPost2010PropOp28
 70
     1
102
RTVSPost2010Prop29
280
     1
102
RTVSPost2010PropOp29
 70
     1
102
RTVSPost2010Prop30
280
     1
102
RTVSPost2010PropOp30
 70
     1
102
RTVSPost2010Prop31
280
     0
102
RTVSPost2010PropOp31
 70
     1
102
RTVSPost2010Prop32
280
     0
102
RTVSPost2010PropOp32
 70
     1
102
RTVSPost2010Prop33
280
     0
102
RTVSPost2010PropOp33
 70
     1
102
RTVSPost2010Prop34
280
     0
102
RTVSPost2010PropOp34
 70
     1
102
RTVSPost2010Prop35
280
     0
102
RTVSPost2010PropOp35
 70
     1
102
RTVSPost2010Prop36
280
     0
102
RTVSPost2010PropOp36
 70
     1
102
RTVSPost2010Prop37
 90
       50
102
RTVSPost2010PropOp37
 70
     1
102
RTVSPost2010Prop38
140
0.0
102
RTVSPost2010PropOp38
 70
     1
102
RTVSPost2010Prop39
140
1.0
102
RTVSPost2010PropOp39
 70
     1
102
RTVSPost2010Prop40
 90
        0
102
RTVSPost2010PropOp40
 70
     1
102
RTVSPost2010Prop41ColorIndex
 90
       18
102
RTVSPost2010Prop41ColorRGB
 90
        0
102
RTVSPost2010PropOp41
 70
     1
102
RTVSPost2010Prop42
 90
       50
102
RTVSPost2010PropOp42
 70
     1
102
RTVSPost2010Prop43
 90
        3
102
RTVSPost2010PropOp43
 70
     1
102
RTVSPost2010Prop44ColorIndex
 90
        5
102
RTVSPost2010Prop44ColorRGB
 90
      255
102
RTVSPost2010PropOp44
 70
     1
102
RTVSPost2010Prop45
280
     0
102
RTVSPost2010PropOp45
 70
     1
102
RTVSPost2010Prop46
 90
       50
102
RTVSPost2010PropOp46
 70
     1
102
RTVSPost2010Prop47
 90
       50
102
RTVSPost2010PropOp47
 70
     1
102
RTVSPost2010Prop48
 90
       50
102
RTVSPost2010PropOp48
 70
     1
102
RTVSPost2010Prop49
280
     0
102
RTVSPost2010PropOp49
 70
     1
102
RTVSPost2010Prop50
 90
       50
102
RTVSPost2010PropOp50
 70
     1
102
RTVSPost2010Prop51ColorIndex
 90
      256
102
RTVSPost2010Prop51ColorRGB
 90
-16777216
102
RTVSPost2010PropOp51
 70
     0
102
RTVSPost2010Prop52
140
1.0
102
RTVSPost2010PropOp52
 70
     0
102
RTVSPost2010Prop53
 90
        2
102
RTVSPost2010PropOp53
 70
     1
102
RTVSPost2010Prop54
  1
strokes_ogs.tif
102
RTVSPost2010PropOp54
 70
     1
102
RTVSPost2010Prop55
280
     0
102
RTVSPost2010PropOp55
 70
     1
102
RTVSPost2010Prop56
140
1.0
102
RTVSPost2010PropOp56
 70
     1
102
RTVSPost2010Prop57
140
1.0
102
RTVSPost2010PropOp57
 70
     1
102
RTVSPropertyOp0
 70
     1
102
RTVSPropertyOp1
 70
     1
102
RTVSPropertyOp2
 70
     1
102
RTVSPropertyOp3
 70
     1
102
RTVSPropertyOp4
 70
     1
102
RTVSPropertyOp5
 70
     1
102
RTVSPropertyOp6
 70
     1
102
RTVSPropertyOp7
 70
     1
102
RTVSPropertyOp8
 70
     1
102
RTVSPropertyOp9
 70
     1
102
RTVSPropertyOp10
 70
     1
102
RTVSPropertyOp11
 70
     1
102
RTVSPropertyOp12
 70
     1
102
RTVSPropertyOp13
 70
     1
102
RTVSPropertyOp14
 70
     1
102
RTVSPropertyOp15
 70
     1
102
RTVSPropertyOp16
 70
     1
102
RTVSPropertyOp17
 70
     1
102
RTVSPropertyOp18
 70
     1
102
RTVSPropertyOp19
 70
     1
102
RTVSPropertyOp20
 70
     1
102
RTVSPropertyOp21
 70
     1
102
RTVSPropertyOp22
 70
     1
102
RTVSPropertyOp23
 70
     1
102
RTVSPropertyOp24
 70
     1
102
RTVSPropertyOp25
 70
     1
102
RTVSPropertyOp26
 70
     1
102
RTVSPropertyOp27
 70
     1
102
RTVSPropertyOp28
 70
     1
102
RTVSPropertyOp29
 70
     1
102
RTVSPropertyOp30
 70
     1
102
RTVSPropertyOp31
 70
     1
102
RTVSPropertyOp32
 70
     1
102
RTVSPropertyOp33
 70
     1
102
RTVSPropertyOp34
 70
     1
102
RTVSPropertyOp35
 70
     1
102
RTVSPropertyOp36
 70
     1
102
RTVSPropertyOp37
 70
     1
102
RTVSPropertyOp38
 70
     1
102
RTVSPropertyOp39
 70
     1
102
RTVSPropertyOp40
 70
     1
102
RTVSPropertyOp41
 70
     1
102
RTVSPropertyOp42
 70
     1
102
RTVSPropertyOp43
 70
     1
102
RTVSPropertyOp44
 70
     1
102
RTVSPropertyOp45
 70
     1
102
RTVSPropertyOp46
 70
     1
102
RTVSPropertyOp47
 70
     1
102
RTVSPropertyOp48
 70
     1
102
RTVSPropertyOp49
 70
     1
102
RTVSPropertyOp50
 70
     1
102
RTVSPropertyOp51
 70
     0
102
RTVSPropertyOp52
 70
     0
102
RTVSPropertyOp53
 70
     1
102
RTVSPropertyOp54
 70
     1
102
RTVSPropertyOp55
 70
     1
102
RTVSPropertyOp56
 70
     1
102
RTVSPropertyOp57
 70
     1
102
RTVSPropertyOp58
 70
     1
102
RTVSPropertyOp59
 70
     1
102
RTVSPropertyOp60
 70
     1
102
RTVSPropertyOp61
 70
     1
102
RTVSPropertyOp62
 70
     1
  0
XRECORD
  5
8BA
102
{ACAD_REACTORS
330
8B9
102
}
330
8B9
100
AcDbXrecord
280
     1
102
RTVSPost2010Prop28
280
     0
102
RTVSPost2010PropOp28
 70
     1
102
RTVSPost2010Prop29
280
     1
102
RTVSPost2010PropOp29
 70
     1
102
RTVSPost2010Prop30
280
     1
102
RTVSPost2010PropOp30
 70
     1
102
RTVSPost2010Prop31
280
     0
102
RTVSPost2010PropOp31
 70
     1
102
RTVSPost2010Prop32
280
     0
102
RTVSPost2010PropOp32
 70
     1
102
RTVSPost2010Prop33
280
     0
102
RTVSPost2010PropOp33
 70
     1
102
RTVSPost2010Prop34
280
     0
102
RTVSPost2010PropOp34
 70
     1
102
RTVSPost2010Prop35
280
     0
102
RTVSPost2010PropOp35
 70
     1
102
RTVSPost2010Prop36
280
     0
102
RTVSPost2010PropOp36
 70
     1
102
RTVSPost2010Prop37
 90
       50
102
RTVSPost2010PropOp37
 70
     1
102
RTVSPost2010Prop38
140
0.0
102
RTVSPost2010PropOp38
 70
     1
102
RTVSPost2010Prop39
140
1.0
102
RTVSPost2010PropOp39
 70
     1
102
RTVSPost2010Prop40
 90
        0
102
RTVSPost2010PropOp40
 70
     1
102
RTVSPost2010Prop41ColorIndex
 90
       18
102
RTVSPost2010Prop41ColorRGB
 90
        0
102
RTVSPost2010PropOp41
 70
     1
102
RTVSPost2010Prop42
 90
       50
102
RTVSPost2010PropOp42
 70
     1
102
RTVSPost2010Prop43
 90
        3
102
RTVSPost2010PropOp43
 70
     1
102
RTVSPost2010Prop44ColorIndex
 90
        5
102
RTVSPost2010Prop44ColorRGB
 90
      255
102
RTVSPost2010PropOp44
 70
     1
102
RTVSPost2010Prop45
280
     0
102
RTVSPost2010PropOp45
 70
     1
102
RTVSPost2010Prop46
 90
       50
102
RTVSPost2010PropOp46
 70
     1
102
RTVSPost2010Prop47
 90
       50
102
RTVSPost2010PropOp47
 70
     1
102
RTVSPost2010Prop48
 90
       50
102
RTVSPost2010PropOp48
 70
     1
102
RTVSPost2010Prop49
280
     0
102
RTVSPost2010PropOp49
 70
     1
102
RTVSPost2010Prop50
 90
       50
102
RTVSPost2010PropOp50
 70
     1
102
RTVSPost2010Prop51ColorIndex
 90
      256
102
RTVSPost2010Prop51ColorRGB
 90
-16777216
102
RTVSPost2010PropOp51
 70
     0
102
RTVSPost2010Prop52
140
1.0
102
RTVSPost2010PropOp52
 70
     0
102
RTVSPost2010Prop53
 90
        2
102
RTVSPost2010PropOp53
 70
     1
102
RTVSPost2010Prop54
  1
strokes_ogs.tif
102
RTVSPost2010PropOp54
 70
     1
102
RTVSPost2010Prop55
280
     0
102
RTVSPost2010PropOp55
 70
     1
102
RTVSPost2010Prop56
140
1.0
102
RTVSPost2010PropOp56
 70
     1
102
RTVSPost2010Prop57
140
1.0
102
RTVSPost2010PropOp57
 70
     1
102
RTVSPropertyOp0
 70
     1
102
RTVSPropertyOp1
 70
     1
102
RTVSPropertyOp2
 70
     1
102
RTVSPropertyOp3
 70
     1
102
RTVSPropertyOp4
 70
     1
102
RTVSPropertyOp5
 70
     1
102
RTVSPropertyOp6
 70
     1
102
RTVSPropertyOp7
 70
     1
102
RTVSPropertyOp8
 70
     1
102
RTVSPropertyOp9
 70
     1
102
RTVSPropertyOp10
 70
     1
102
RTVSPropertyOp11
 70
     1
102
RTVSPropertyOp12
 70
     1
102
RTVSPropertyOp13
 70
     1
102
RTVSPropertyOp14
 70
     1
102
RTVSPropertyOp15
 70
     1
102
RTVSPropertyOp16
 70
     1
102
RTVSPropertyOp17
 70
     1
102
RTVSPropertyOp18
 70
     1
102
RTVSPropertyOp19
 70
     1
102
RTVSPropertyOp20
 70
     1
102
RTVSPropertyOp21
 70
     1
102
RTVSPropertyOp22
 70
     1
102
RTVSPropertyOp23
 70
     1
102
RTVSPropertyOp24
 70
     1
102
RTVSPropertyOp25
 70
     1
102
RTVSPropertyOp26
 70
     1
102
RTVSPropertyOp27
 70
     1
102
RTVSPropertyOp28
 70
     1
102
RTVSPropertyOp29
 70
     1
102
RTVSPropertyOp30
 70
     1
102
RTVSPropertyOp31
 70
     1
102
RTVSPropertyOp32
 70
     1
102
RTVSPropertyOp33
 70
     1
102
RTVSPropertyOp34
 70
     1
102
RTVSPropertyOp35
 70
     1
102
RTVSPropertyOp36
 70
     1
102
RTVSPropertyOp37
 70
     1
102
RTVSPropertyOp38
 70
     1
102
RTVSPropertyOp39
 70
     1
102
RTVSPropertyOp40
 70
     1
102
RTVSPropertyOp41
 70
     1
102
RTVSPropertyOp42
 70
     1
102
RTVSPropertyOp43
 70
     1
102
RTVSPropertyOp44
 70
     1
102
RTVSPropertyOp45
 70
     1
102
RTVSPropertyOp46
 70
     1
102
RTVSPropertyOp47
 70
     1
102
RTVSPropertyOp48
 70
     1
102
RTVSPropertyOp49
 70
     1
102
RTVSPropertyOp50
 70
     1
102
RTVSPropertyOp51
 70
     0
102
RTVSPropertyOp52
 70
     0
102
RTVSPropertyOp53
 70
     1
102
RTVSPropertyOp54
 70
     1
102
RTVSPropertyOp55
 70
     1
102
RTVSPropertyOp56
 70
     1
102
RTVSPropertyOp57
 70
     1
102
RTVSPropertyOp58
 70
     1
102
RTVSPropertyOp59
 70
     1
102
RTVSPropertyOp60
 70
     1
102
RTVSPropertyOp61
 70
     1
102
RTVSPropertyOp62
 70
     1
  0
XRECORD
  5
8BC
102
{ACAD_REACTORS
330
8BB
102
}
330
8BB
100
AcDbXrecord
280
     1
102
RTVSPost2010Prop28
280
     0
102
RTVSPost2010PropOp28
 70
     1
102
RTVSPost2010Prop29
280
     1
102
RTVSPost2010PropOp29
 70
     1
102
RTVSPost2010Prop30
280
     1
102
RTVSPost2010PropOp30
 70
     1
102
RTVSPost2010Prop31
280
     0
102
RTVSPost2010PropOp31
 70
     1
102
RTVSPost2010Prop32
280
     0
102
RTVSPost2010PropOp32
 70
     1
102
RTVSPost2010Prop33
280
     0
102
RTVSPost2010PropOp33
 70
     1
102
RTVSPost2010Prop34
280
     0
102
RTVSPost2010PropOp34
 70
     1
102
RTVSPost2010Prop35
280
     0
102
RTVSPost2010PropOp35
 70
     1
102
RTVSPost2010Prop36
280
     0
102
RTVSPost2010PropOp36
 70
     1
102
RTVSPost2010Prop37
 90
       50
102
RTVSPost2010PropOp37
 70
     1
102
RTVSPost2010Prop38
140
0.0
102
RTVSPost2010PropOp38
 70
     1
102
RTVSPost2010Prop39
140
1.0
102
RTVSPost2010PropOp39
 70
     1
102
RTVSPost2010Prop40
 90
        0
102
RTVSPost2010PropOp40
 70
     1
102
RTVSPost2010Prop41ColorIndex
 90
       18
102
RTVSPost2010Prop41ColorRGB
 90
        0
102
RTVSPost2010PropOp41
 70
     1
102
RTVSPost2010Prop42
 90
       50
102
RTVSPost2010PropOp42
 70
     1
102
RTVSPost2010Prop43
 90
        3
102
RTVSPost2010PropOp43
 70
     1
102
RTVSPost2010Prop44ColorIndex
 90
        5
102
RTVSPost2010Prop44ColorRGB
 90
      255
102
RTVSPost2010PropOp44
 70
     1
102
RTVSPost2010Prop45
280
     0
102
RTVSPost2010PropOp45
 70
     1
102
RTVSPost2010Prop46
 90
       50
102
RTVSPost2010PropOp46
 70
     1
102
RTVSPost2010Prop47
 90
       50
102
RTVSPost2010PropOp47
 70
     1
102
RTVSPost2010Prop48
 90
       50
102
RTVSPost2010PropOp48
 70
     1
102
RTVSPost2010Prop49
280
     0
102
RTVSPost2010PropOp49
 70
     1
102
RTVSPost2010Prop50
 90
       50
102
RTVSPost2010PropOp50
 70
     1
102
RTVSPost2010Prop51ColorIndex
 90
      256
102
RTVSPost2010Prop51ColorRGB
 90
-16777216
102
RTVSPost2010PropOp51
 70
     0
102
RTVSPost2010Prop52
140
1.0
102
RTVSPost2010PropOp52
 70
     0
102
RTVSPost2010Prop53
 90
        2
102
RTVSPost2010PropOp53
 70
     1
102
RTVSPost2010Prop54
  1
strokes_ogs.tif
102
RTVSPost2010PropOp54
 70
     1
102
RTVSPost2010Prop55
280
     0
102
RTVSPost2010PropOp55
 70
     1
102
RTVSPost2010Prop56
140
1.0
102
RTVSPost2010PropOp56
 70
     1
102
RTVSPost2010Prop57
140
1.0
102
RTVSPost2010PropOp57
 70
     1
102
RTVSPropertyOp0
 70
     1
102
RTVSPropertyOp1
 70
     1
102
RTVSPropertyOp2
 70
     1
102
RTVSPropertyOp3
 70
     1
102
RTVSPropertyOp4
 70
     1
102
RTVSPropertyOp5
 70
     1
102
RTVSPropertyOp6
 70
     1
102
RTVSPropertyOp7
 70
     1
102
RTVSPropertyOp8
 70
     1
102
RTVSPropertyOp9
 70
     1
102
RTVSPropertyOp10
 70
     1
102
RTVSPropertyOp11
 70
     1
102
RTVSPropertyOp12
 70
     1
102
RTVSPropertyOp13
 70
     1
102
RTVSPropertyOp14
 70
     1
102
RTVSPropertyOp15
 70
     1
102
RTVSPropertyOp16
 70
     1
102
RTVSPropertyOp17
 70
     1
102
RTVSPropertyOp18
 70
     1
102
RTVSPropertyOp19
 70
     1
102
RTVSPropertyOp20
 70
     1
102
RTVSPropertyOp21
 70
     1
102
RTVSPropertyOp22
 70
     1
102
RTVSPropertyOp23
 70
     1
102
RTVSPropertyOp24
 70
     1
102
RTVSPropertyOp25
 70
     1
102
RTVSPropertyOp26
 70
     1
102
RTVSPropertyOp27
 70
     1
102
RTVSPropertyOp28
 70
     1
102
RTVSPropertyOp29
 70
     1
102
RTVSPropertyOp30
 70
     1
102
RTVSPropertyOp31
 70
     1
102
RTVSPropertyOp32
 70
     1
102
RTVSPropertyOp33
 70
     1
102
RTVSPropertyOp34
 70
     1
102
RTVSPropertyOp35
 70
     1
102
RTVSPropertyOp36
 70
     1
102
RTVSPropertyOp37
 70
     1
102
RTVSPropertyOp38
 70
     1
102
RTVSPropertyOp39
 70
     1
102
RTVSPropertyOp40
 70
     1
102
RTVSPropertyOp41
 70
     1
102
RTVSPropertyOp42
 70
     1
102
RTVSPropertyOp43
 70
     1
102
RTVSPropertyOp44
 70
     1
102
RTVSPropertyOp45
 70
     1
102
RTVSPropertyOp46
 70
     1
102
RTVSPropertyOp47
 70
     1
102
RTVSPropertyOp48
 70
     1
102
RTVSPropertyOp49
 70
     1
102
RTVSPropertyOp50
 70
     1
102
RTVSPropertyOp51
 70
     0
102
RTVSPropertyOp52
 70
     0
102
RTVSPropertyOp53
 70
     1
102
RTVSPropertyOp54
 70
     1
102
RTVSPropertyOp55
 70
     1
102
RTVSPropertyOp56
 70
     1
102
RTVSPropertyOp57
 70
     1
102
RTVSPropertyOp58
 70
     1
102
RTVSPropertyOp59
 70
     1
102
RTVSPropertyOp60
 70
     1
102
RTVSPropertyOp61
 70
     1
102
RTVSPropertyOp62
 70
     1
  0
XRECORD
  5
8BE
102
{ACAD_REACTORS
330
8BD
102
}
330
8BD
100
AcDbXrecord
280
     1
102
RTVSPost2010Prop28
280
     0
102
RTVSPost2010PropOp28
 70
     1
102
RTVSPost2010Prop29
280
     1
102
RTVSPost2010PropOp29
 70
     1
102
RTVSPost2010Prop30
280
     1
102
RTVSPost2010PropOp30
 70
     1
102
RTVSPost2010Prop31
280
     0
102
RTVSPost2010PropOp31
 70
     1
102
RTVSPost2010Prop32
280
     0
102
RTVSPost2010PropOp32
 70
     1
102
RTVSPost2010Prop33
280
     0
102
RTVSPost2010PropOp33
 70
     1
102
RTVSPost2010Prop34
280
     0
102
RTVSPost2010PropOp34
 70
     1
102
RTVSPost2010Prop35
280
     0
102
RTVSPost2010PropOp35
 70
     1
102
RTVSPost2010Prop36
280
     0
102
RTVSPost2010PropOp36
 70
     1
102
RTVSPost2010Prop37
 90
       50
102
RTVSPost2010PropOp37
 70
     1
102
RTVSPost2010Prop38
140
0.0
102
RTVSPost2010PropOp38
 70
     1
102
RTVSPost2010Prop39
140
1.0
102
RTVSPost2010PropOp39
 70
     1
102
RTVSPost2010Prop40
 90
        0
102
RTVSPost2010PropOp40
 70
     1
102
RTVSPost2010Prop41ColorIndex
 90
       18
102
RTVSPost2010Prop41ColorRGB
 90
        0
102
RTVSPost2010PropOp41
 70
     1
102
RTVSPost2010Prop42
 90
       50
102
RTVSPost2010PropOp42
 70
     1
102
RTVSPost2010Prop43
 90
        3
102
RTVSPost2010PropOp43
 70
     1
102
RTVSPost2010Prop44ColorIndex
 90
        5
102
RTVSPost2010Prop44ColorRGB
 90
      255
102
RTVSPost2010PropOp44
 70
     1
102
RTVSPost2010Prop45
280
     0
102
RTVSPost2010PropOp45
 70
     1
102
RTVSPost2010Prop46
 90
       50
102
RTVSPost2010PropOp46
 70
     1
102
RTVSPost2010Prop47
 90
       50
102
RTVSPost2010PropOp47
 70
     1
102
RTVSPost2010Prop48
 90
       50
102
RTVSPost2010PropOp48
 70
     1
102
RTVSPost2010Prop49
280
     0
102
RTVSPost2010PropOp49
 70
     1
102
RTVSPost2010Prop50
 90
       50
102
RTVSPost2010PropOp50
 70
     1
102
RTVSPost2010Prop51ColorIndex
 90
      256
102
RTVSPost2010Prop51ColorRGB
 90
-16777216
102
RTVSPost2010PropOp51
 70
     0
102
RTVSPost2010Prop52
140
1.0
102
RTVSPost2010PropOp52
 70
     0
102
RTVSPost2010Prop53
 90
        2
102
RTVSPost2010PropOp53
 70
     1
102
RTVSPost2010Prop54
  1
strokes_ogs.tif
102
RTVSPost2010PropOp54
 70
     1
102
RTVSPost2010Prop55
280
     0
102
RTVSPost2010PropOp55
 70
     1
102
RTVSPost2010Prop56
140
1.0
102
RTVSPost2010PropOp56
 70
     1
102
RTVSPost2010Prop57
140
1.0
102
RTVSPost2010PropOp57
 70
     1
102
RTVSPropertyOp0
 70
     1
102
RTVSPropertyOp1
 70
     1
102
RTVSPropertyOp2
 70
     1
102
RTVSPropertyOp3
 70
     1
102
RTVSPropertyOp4
 70
     1
102
RTVSPropertyOp5
 70
     1
102
RTVSPropertyOp6
 70
     1
102
RTVSPropertyOp7
 70
     1
102
RTVSPropertyOp8
 70
     1
102
RTVSPropertyOp9
 70
     1
102
RTVSPropertyOp10
 70
     1
102
RTVSPropertyOp11
 70
     1
102
RTVSPropertyOp12
 70
     1
102
RTVSPropertyOp13
 70
     1
102
RTVSPropertyOp14
 70
     1
102
RTVSPropertyOp15
 70
     1
102
RTVSPropertyOp16
 70
     1
102
RTVSPropertyOp17
 70
     1
102
RTVSPropertyOp18
 70
     1
102
RTVSPropertyOp19
 70
     1
102
RTVSPropertyOp20
 70
     1
102
RTVSPropertyOp21
 70
     1
102
RTVSPropertyOp22
 70
     1
102
RTVSPropertyOp23
 70
     1
102
RTVSPropertyOp24
 70
     1
102
RTVSPropertyOp25
 70
     1
102
RTVSPropertyOp26
 70
     1
102
RTVSPropertyOp27
 70
     1
102
RTVSPropertyOp28
 70
     1
102
RTVSPropertyOp29
 70
     1
102
RTVSPropertyOp30
 70
     1
102
RTVSPropertyOp31
 70
     1
102
RTVSPropertyOp32
 70
     1
102
RTVSPropertyOp33
 70
     1
102
RTVSPropertyOp34
 70
     1
102
RTVSPropertyOp35
 70
     1
102
RTVSPropertyOp36
 70
     1
102
RTVSPropertyOp37
 70
     1
102
RTVSPropertyOp38
 70
     1
102
RTVSPropertyOp39
 70
     1
102
RTVSPropertyOp40
 70
     1
102
RTVSPropertyOp41
 70
     1
102
RTVSPropertyOp42
 70
     1
102
RTVSPropertyOp43
 70
     1
102
RTVSPropertyOp44
 70
     1
102
RTVSPropertyOp45
 70
     1
102
RTVSPropertyOp46
 70
     1
102
RTVSPropertyOp47
 70
     1
102
RTVSPropertyOp48
 70
     1
102
RTVSPropertyOp49
 70
     1
102
RTVSPropertyOp50
 70
     1
102
RTVSPropertyOp51
 70
     0
102
RTVSPropertyOp52
 70
     0
102
RTVSPropertyOp53
 70
     1
102
RTVSPropertyOp54
 70
     1
102
RTVSPropertyOp55
 70
     1
102
RTVSPropertyOp56
 70
     1
102
RTVSPropertyOp57
 70
     1
102
RTVSPropertyOp58
 70
     1
102
RTVSPropertyOp59
 70
     1
102
RTVSPropertyOp60
 70
     1
102
RTVSPropertyOp61
 70
     1
102
RTVSPropertyOp62
 70
     1
  0
XRECORD
  5
8DA
102
{ACAD_REACTORS
330
8D9
102
}
330
8D9
100
AcDbXrecord
280
     1
102
RTVSPost2010Prop28
280
     0
102
RTVSPost2010PropOp28
 70
     1
102
RTVSPost2010Prop29
280
     1
102
RTVSPost2010PropOp29
 70
     1
102
RTVSPost2010Prop30
280
     1
102
RTVSPost2010PropOp30
 70
     1
102
RTVSPost2010Prop31
280
     0
102
RTVSPost2010PropOp31
 70
     1
102
RTVSPost2010Prop32
280
     0
102
RTVSPost2010PropOp32
 70
     1
102
RTVSPost2010Prop33
280
     0
102
RTVSPost2010PropOp33
 70
     1
102
RTVSPost2010Prop34
280
     0
102
RTVSPost2010PropOp34
 70
     1
102
RTVSPost2010Prop35
280
     0
102
RTVSPost2010PropOp35
 70
     1
102
RTVSPost2010Prop36
280
     0
102
RTVSPost2010PropOp36
 70
     1
102
RTVSPost2010Prop37
 90
       50
102
RTVSPost2010PropOp37
 70
     1
102
RTVSPost2010Prop38
140
0.0
102
RTVSPost2010PropOp38
 70
     1
102
RTVSPost2010Prop39
140
1.0
102
RTVSPost2010PropOp39
 70
     1
102
RTVSPost2010Prop40
 90
        0
102
RTVSPost2010PropOp40
 70
     1
102
RTVSPost2010Prop41ColorIndex
 90
       18
102
RTVSPost2010Prop41ColorRGB
 90
        0
102
RTVSPost2010PropOp41
 70
     1
102
RTVSPost2010Prop42
 90
       50
102
RTVSPost2010PropOp42
 70
     1
102
RTVSPost2010Prop43
 90
        3
102
RTVSPost2010PropOp43
 70
     1
102
RTVSPost2010Prop44ColorIndex
 90
        5
102
RTVSPost2010Prop44ColorRGB
 90
      255
102
RTVSPost2010PropOp44
 70
     1
102
RTVSPost2010Prop45
280
     0
102
RTVSPost2010PropOp45
 70
     1
102
RTVSPost2010Prop46
 90
       50
102
RTVSPost2010PropOp46
 70
     1
102
RTVSPost2010Prop47
 90
       50
102
RTVSPost2010PropOp47
 70
     1
102
RTVSPost2010Prop48
 90
       50
102
RTVSPost2010PropOp48
 70
     1
102
RTVSPost2010Prop49
280
     0
102
RTVSPost2010PropOp49
 70
     1
102
RTVSPost2010Prop50
 90
       50
102
RTVSPost2010PropOp50
 70
     1
102
RTVSPost2010Prop51ColorIndex
 90
      256
102
RTVSPost2010Prop51ColorRGB
 90
-16777216
102
RTVSPost2010PropOp51
 70
     0
102
RTVSPost2010Prop52
140
1.0
102
RTVSPost2010PropOp52
 70
     0
102
RTVSPost2010Prop53
 90
        2
102
RTVSPost2010PropOp53
 70
     1
102
RTVSPost2010Prop54
  1
strokes_ogs.tif
102
RTVSPost2010PropOp54
 70
     1
102
RTVSPost2010Prop55
280
     0
102
RTVSPost2010PropOp55
 70
     1
102
RTVSPost2010Prop56
140
1.0
102
RTVSPost2010PropOp56
 70
     1
102
RTVSPost2010Prop57
140
1.0
102
RTVSPost2010PropOp57
 70
     1
102
RTVSPropertyOp0
 70
     1
102
RTVSPropertyOp1
 70
     1
102
RTVSPropertyOp2
 70
     1
102
RTVSPropertyOp3
 70
     1
102
RTVSPropertyOp4
 70
     1
102
RTVSPropertyOp5
 70
     1
102
RTVSPropertyOp6
 70
     1
102
RTVSPropertyOp7
 70
     1
102
RTVSPropertyOp8
 70
     1
102
RTVSPropertyOp9
 70
     1
102
RTVSPropertyOp10
 70
     1
102
RTVSPropertyOp11
 70
     1
102
RTVSPropertyOp12
 70
     1
102
RTVSPropertyOp13
 70
     1
102
RTVSPropertyOp14
 70
     1
102
RTVSPropertyOp15
 70
     1
102
RTVSPropertyOp16
 70
     1
102
RTVSPropertyOp17
 70
     1
102
RTVSPropertyOp18
 70
     1
102
RTVSPropertyOp19
 70
     1
102
RTVSPropertyOp20
 70
     1
102
RTVSPropertyOp21
 70
     1
102
RTVSPropertyOp22
 70
     1
102
RTVSPropertyOp23
 70
     1
102
RTVSPropertyOp24
 70
     1
102
RTVSPropertyOp25
 70
     1
102
RTVSPropertyOp26
 70
     1
102
RTVSPropertyOp27
 70
     1
102
RTVSPropertyOp28
 70
     1
102
RTVSPropertyOp29
 70
     1
102
RTVSPropertyOp30
 70
     1
102
RTVSPropertyOp31
 70
     1
102
RTVSPropertyOp32
 70
     1
102
RTVSPropertyOp33
 70
     1
102
RTVSPropertyOp34
 70
     1
102
RTVSPropertyOp35
 70
     1
102
RTVSPropertyOp36
 70
     1
102
RTVSPropertyOp37
 70
     1
102
RTVSPropertyOp38
 70
     1
102
RTVSPropertyOp39
 70
     1
102
RTVSPropertyOp40
 70
     1
102
RTVSPropertyOp41
 70
     1
102
RTVSPropertyOp42
 70
     1
102
RTVSPropertyOp43
 70
     1
102
RTVSPropertyOp44
 70
     1
102
RTVSPropertyOp45
 70
     1
102
RTVSPropertyOp46
 70
     1
102
RTVSPropertyOp47
 70
     1
102
RTVSPropertyOp48
 70
     1
102
RTVSPropertyOp49
 70
     1
102
RTVSPropertyOp50
 70
     1
102
RTVSPropertyOp51
 70
     0
102
RTVSPropertyOp52
 70
     0
102
RTVSPropertyOp53
 70
     1
102
RTVSPropertyOp54
 70
     1
102
RTVSPropertyOp55
 70
     1
102
RTVSPropertyOp56
 70
     1
102
RTVSPropertyOp57
 70
     1
102
RTVSPropertyOp58
 70
     1
102
RTVSPropertyOp59
 70
     1
102
RTVSPropertyOp60
 70
     1
102
RTVSPropertyOp61
 70
     1
102
RTVSPropertyOp62
 70
     1
  0
XRECORD
  5
8E6
102
{ACAD_REACTORS
330
8E5
102
}
330
8E5
100
AcDbXrecord
280
     1
102
RTVSPost2010Prop28
280
     0
102
RTVSPost2010PropOp28
 70
     1
102
RTVSPost2010Prop29
280
     1
102
RTVSPost2010PropOp29
 70
     1
102
RTVSPost2010Prop30
280
     1
102
RTVSPost2010PropOp30
 70
     1
102
RTVSPost2010Prop31
280
     0
102
RTVSPost2010PropOp31
 70
     1
102
RTVSPost2010Prop32
280
     0
102
RTVSPost2010PropOp32
 70
     1
102
RTVSPost2010Prop33
280
     0
102
RTVSPost2010PropOp33
 70
     1
102
RTVSPost2010Prop34
280
     0
102
RTVSPost2010PropOp34
 70
     1
102
RTVSPost2010Prop35
280
     0
102
RTVSPost2010PropOp35
 70
     1
102
RTVSPost2010Prop36
280
     0
102
RTVSPost2010PropOp36
 70
     1
102
RTVSPost2010Prop37
 90
       50
102
RTVSPost2010PropOp37
 70
     0
102
RTVSPost2010Prop38
140
0.0
102
RTVSPost2010PropOp38
 70
     0
102
RTVSPost2010Prop39
140
1.0
102
RTVSPost2010PropOp39
 70
     0
102
RTVSPost2010Prop40
 90
        0
102
RTVSPost2010PropOp40
 70
     0
102
RTVSPost2010Prop41ColorIndex
 90
       18
102
RTVSPost2010Prop41ColorRGB
 90
        0
102
RTVSPost2010PropOp41
 70
     0
102
RTVSPost2010Prop42
 90
       50
102
RTVSPost2010PropOp42
 70
     0
102
RTVSPost2010Prop43
 90
        3
102
RTVSPost2010PropOp43
 70
     0
102
RTVSPost2010Prop44ColorIndex
 90
        5
102
RTVSPost2010Prop44ColorRGB
 90
      255
102
RTVSPost2010PropOp44
 70
     0
102
RTVSPost2010Prop45
280
     0
102
RTVSPost2010PropOp45
 70
     1
102
RTVSPost2010Prop46
 90
       50
102
RTVSPost2010PropOp46
 70
     0
102
RTVSPost2010Prop47
 90
       50
102
RTVSPost2010PropOp47
 70
     0
102
RTVSPost2010Prop48
 90
       50
102
RTVSPost2010PropOp48
 70
     0
102
RTVSPost2010Prop49
280
     0
102
RTVSPost2010PropOp49
 70
     1
102
RTVSPost2010Prop50
 90
       50
102
RTVSPost2010PropOp50
 70
     0
102
RTVSPost2010Prop51ColorIndex
 90
      256
102
RTVSPost2010Prop51ColorRGB
 90
-16777216
102
RTVSPost2010PropOp51
 70
     0
102
RTVSPost2010Prop52
140
1.0
102
RTVSPost2010PropOp52
 70
     0
102
RTVSPost2010Prop53
 90
        2
102
RTVSPost2010PropOp53
 70
     0
102
RTVSPost2010Prop54
  1
strokes_ogs.tif
102
RTVSPost2010PropOp54
 70
     0
102
RTVSPost2010Prop55
280
     0
102
RTVSPost2010PropOp55
 70
     1
102
RTVSPost2010Prop56
140
1.0
102
RTVSPost2010PropOp56
 70
     0
102
RTVSPost2010Prop57
140
1.0
102
RTVSPost2010PropOp57
 70
     0
102
RTVSPropertyOp0
 70
     0
102
RTVSPropertyOp1
 70
     0
102
RTVSPropertyOp2
 70
     0
102
RTVSPropertyOp3
 70
     0
102
RTVSPropertyOp4
 70
     0
102
RTVSPropertyOp5
 70
     0
102
RTVSPropertyOp6
 70
     0
102
RTVSPropertyOp7
 70
     0
102
RTVSPropertyOp8
 70
     0
102
RTVSPropertyOp9
 70
     0
102
RTVSPropertyOp10
 70
     0
102
RTVSPropertyOp11
 70
     0
102
RTVSPropertyOp12
 70
     0
102
RTVSPropertyOp13
 70
     0
102
RTVSPropertyOp14
 70
     2
102
RTVSPropertyOp15
 70
     0
102
RTVSPropertyOp16
 70
     0
102
RTVSPropertyOp17
 70
     0
102
RTVSPropertyOp18
 70
     0
102
RTVSPropertyOp19
 70
     0
102
RTVSPropertyOp20
 70
     0
102
RTVSPropertyOp21
 70
     0
102
RTVSPropertyOp22
 70
     0
102
RTVSPropertyOp23
 70
     0
102
RTVSPropertyOp24
 70
     0
102
RTVSPropertyOp25
 70
     0
102
RTVSPropertyOp26
 70
     0
102
RTVSPropertyOp27
 70
     0
102
RTVSPropertyOp28
 70
     1
102
RTVSPropertyOp29
 70
     1
102
RTVSPropertyOp30
 70
     1
102
RTVSPropertyOp31
 70
     1
102
RTVSPropertyOp32
 70
     1
102
RTVSPropertyOp33
 70
     1
102
RTVSPropertyOp34
 70
     1
102
RTVSPropertyOp35
 70
     1
102
RTVSPropertyOp36
 70
     1
102
RTVSPropertyOp37
 70
     0
102
RTVSPropertyOp38
 70
     0
102
RTVSPropertyOp39
 70
     0
102
RTVSPropertyOp40
 70
     0
102
RTVSPropertyOp41
 70
     0
102
RTVSPropertyOp42
 70
     0
102
RTVSPropertyOp43
 70
     0
102
RTVSPropertyOp44
 70
     0
102
RTVSPropertyOp45
 70
     1
102
RTVSPropertyOp46
 70
     0
102
RTVSPropertyOp47
 70
     0
102
RTVSPropertyOp48
 70
     0
102
RTVSPropertyOp49
 70
     1
102
RTVSPropertyOp50
 70
     0
102
RTVSPropertyOp51
 70
     0
102
RTVSPropertyOp52
 70
     0
102
RTVSPropertyOp53
 70
     0
102
RTVSPropertyOp54
 70
     0
102
RTVSPropertyOp55
 70
     1
102
RTVSPropertyOp56
 70
     0
102
RTVSPropertyOp57
 70
     0
102
RTVSPropertyOp58
 70
     0
102
RTVSPropertyOp59
 70
     0
102
RTVSPropertyOp60
 70
     0
102
RTVSPropertyOp61
 70
     0
102
RTVSPropertyOp62
 70
     0
  0
XRECORD
  5
8D2
102
{ACAD_REACTORS
330
8D1
102
}
330
8D1
100
AcDbXrecord
280
     1
102
RTVSPost2010Prop28
280
     0
102
RTVSPost2010PropOp28
 70
     1
102
RTVSPost2010Prop29
280
     1
102
RTVSPost2010PropOp29
 70
     1
102
RTVSPost2010Prop30
280
     1
102
RTVSPost2010PropOp30
 70
     1
102
RTVSPost2010Prop31
280
     0
102
RTVSPost2010PropOp31
 70
     1
102
RTVSPost2010Prop32
280
     0
102
RTVSPost2010PropOp32
 70
     1
102
RTVSPost2010Prop33
280
     0
102
RTVSPost2010PropOp33
 70
     1
102
RTVSPost2010Prop34
280
     0
102
RTVSPost2010PropOp34
 70
     1
102
RTVSPost2010Prop35
280
     0
102
RTVSPost2010PropOp35
 70
     1
102
RTVSPost2010Prop36
280
     0
102
RTVSPost2010PropOp36
 70
     1
102
RTVSPost2010Prop37
 90
       50
102
RTVSPost2010PropOp37
 70
     1
102
RTVSPost2010Prop38
140
0.0
102
RTVSPost2010PropOp38
 70
     1
102
RTVSPost2010Prop39
140
1.0
102
RTVSPost2010PropOp39
 70
     1
102
RTVSPost2010Prop40
 90
        0
102
RTVSPost2010PropOp40
 70
     1
102
RTVSPost2010Prop41ColorIndex
 90
       18
102
RTVSPost2010Prop41ColorRGB
 90
        0
102
RTVSPost2010PropOp41
 70
     1
102
RTVSPost2010Prop42
 90
       50
102
RTVSPost2010PropOp42
 70
     1
102
RTVSPost2010Prop43
 90
        3
102
RTVSPost2010PropOp43
 70
     1
102
RTVSPost2010Prop44ColorIndex
 90
        5
102
RTVSPost2010Prop44ColorRGB
 90
      255
102
RTVSPost2010PropOp44
 70
     1
102
RTVSPost2010Prop45
280
     0
102
RTVSPost2010PropOp45
 70
     1
102
RTVSPost2010Prop46
 90
       50
102
RTVSPost2010PropOp46
 70
     1
102
RTVSPost2010Prop47
 90
       50
102
RTVSPost2010PropOp47
 70
     1
102
RTVSPost2010Prop48
 90
       50
102
RTVSPost2010PropOp48
 70
     1
102
RTVSPost2010Prop49
280
     0
102
RTVSPost2010PropOp49
 70
     1
102
RTVSPost2010Prop50
 90
       50
102
RTVSPost2010PropOp50
 70
     1
102
RTVSPost2010Prop51ColorIndex
 90
      256
102
RTVSPost2010Prop51ColorRGB
 90
-16777216
102
RTVSPost2010PropOp51
 70
     0
102
RTVSPost2010Prop52
140
1.0
102
RTVSPost2010PropOp52
 70
     0
102
RTVSPost2010Prop53
 90
        2
102
RTVSPost2010PropOp53
 70
     1
102
RTVSPost2010Prop54
  1
strokes_ogs.tif
102
RTVSPost2010PropOp54
 70
     1
102
RTVSPost2010Prop55
280
     0
102
RTVSPost2010PropOp55
 70
     1
102
RTVSPost2010Prop56
140
1.0
102
RTVSPost2010PropOp56
 70
     1
102
RTVSPost2010Prop57
140
1.0
102
RTVSPost2010PropOp57
 70
     1
102
RTVSPropertyOp0
 70
     1
102
RTVSPropertyOp1
 70
     1
102
RTVSPropertyOp2
 70
     1
102
RTVSPropertyOp3
 70
     1
102
RTVSPropertyOp4
 70
     1
102
RTVSPropertyOp5
 70
     1
102
RTVSPropertyOp6
 70
     1
102
RTVSPropertyOp7
 70
     1
102
RTVSPropertyOp8
 70
     1
102
RTVSPropertyOp9
 70
     1
102
RTVSPropertyOp10
 70
     1
102
RTVSPropertyOp11
 70
     1
102
RTVSPropertyOp12
 70
     1
102
RTVSPropertyOp13
 70
     1
102
RTVSPropertyOp14
 70
     1
102
RTVSPropertyOp15
 70
     1
102
RTVSPropertyOp16
 70
     1
102
RTVSPropertyOp17
 70
     1
102
RTVSPropertyOp18
 70
     1
102
RTVSPropertyOp19
 70
     1
102
RTVSPropertyOp20
 70
     1
102
RTVSPropertyOp21
 70
     1
102
RTVSPropertyOp22
 70
     1
102
RTVSPropertyOp23
 70
     1
102
RTVSPropertyOp24
 70
     1
102
RTVSPropertyOp25
 70
     1
102
RTVSPropertyOp26
 70
     1
102
RTVSPropertyOp27
 70
     1
102
RTVSPropertyOp28
 70
     1
102
RTVSPropertyOp29
 70
     1
102
RTVSPropertyOp30
 70
     1
102
RTVSPropertyOp31
 70
     1
102
RTVSPropertyOp32
 70
     1
102
RTVSPropertyOp33
 70
     1
102
RTVSPropertyOp34
 70
     1
102
RTVSPropertyOp35
 70
     1
102
RTVSPropertyOp36
 70
     1
102
RTVSPropertyOp37
 70
     1
102
RTVSPropertyOp38
 70
     1
102
RTVSPropertyOp39
 70
     1
102
RTVSPropertyOp40
 70
     1
102
RTVSPropertyOp41
 70
     1
102
RTVSPropertyOp42
 70
     1
102
RTVSPropertyOp43
 70
     1
102
RTVSPropertyOp44
 70
     1
102
RTVSPropertyOp45
 70
     1
102
RTVSPropertyOp46
 70
     1
102
RTVSPropertyOp47
 70
     1
102
RTVSPropertyOp48
 70
     1
102
RTVSPropertyOp49
 70
     1
102
RTVSPropertyOp50
 70
     1
102
RTVSPropertyOp51
 70
     0
102
RTVSPropertyOp52
 70
     0
102
RTVSPropertyOp53
 70
     1
102
RTVSPropertyOp54
 70
     1
102
RTVSPropertyOp55
 70
     1
102
RTVSPropertyOp56
 70
     1
102
RTVSPropertyOp57
 70
     1
102
RTVSPropertyOp58
 70
     1
102
RTVSPropertyOp59
 70
     1
102
RTVSPropertyOp60
 70
     1
102
RTVSPropertyOp61
 70
     1
102
RTVSPropertyOp62
 70
     1
  0
XRECORD
  5
8E8
102
{ACAD_REACTORS
330
8E7
102
}
330
8E7
100
AcDbXrecord
280
     1
102
RTVSPost2010Prop28
280
     0
102
RTVSPost2010PropOp28
 70
     1
102
RTVSPost2010Prop29
280
     1
102
RTVSPost2010PropOp29
 70
     1
102
RTVSPost2010Prop30
280
     1
102
RTVSPost2010PropOp30
 70
     1
102
RTVSPost2010Prop31
280
     0
102
RTVSPost2010PropOp31
 70
     1
102
RTVSPost2010Prop32
280
     0
102
RTVSPost2010PropOp32
 70
     1
102
RTVSPost2010Prop33
280
     0
102
RTVSPost2010PropOp33
 70
     1
102
RTVSPost2010Prop34
280
     0
102
RTVSPost2010PropOp34
 70
     1
102
RTVSPost2010Prop35
280
     0
102
RTVSPost2010PropOp35
 70
     1
102
RTVSPost2010Prop36
280
     0
102
RTVSPost2010PropOp36
 70
     1
102
RTVSPost2010Prop37
 90
       50
102
RTVSPost2010PropOp37
 70
     0
102
RTVSPost2010Prop38
140
0.0
102
RTVSPost2010PropOp38
 70
     0
102
RTVSPost2010Prop39
140
1.0
102
RTVSPost2010PropOp39
 70
     0
102
RTVSPost2010Prop40
 90
        0
102
RTVSPost2010PropOp40
 70
     0
102
RTVSPost2010Prop41ColorIndex
 90
       18
102
RTVSPost2010Prop41ColorRGB
 90
        0
102
RTVSPost2010PropOp41
 70
     0
102
RTVSPost2010Prop42
 90
       50
102
RTVSPost2010PropOp42
 70
     0
102
RTVSPost2010Prop43
 90
        3
102
RTVSPost2010PropOp43
 70
     0
102
RTVSPost2010Prop44ColorIndex
 90
        5
102
RTVSPost2010Prop44ColorRGB
 90
      255
102
RTVSPost2010PropOp44
 70
     0
102
RTVSPost2010Prop45
280
     0
102
RTVSPost2010PropOp45
 70
     1
102
RTVSPost2010Prop46
 90
       50
102
RTVSPost2010PropOp46
 70
     0
102
RTVSPost2010Prop47
 90
       50
102
RTVSPost2010PropOp47
 70
     0
102
RTVSPost2010Prop48
 90
       50
102
RTVSPost2010PropOp48
 70
     0
102
RTVSPost2010Prop49
280
     0
102
RTVSPost2010PropOp49
 70
     1
102
RTVSPost2010Prop50
 90
       50
102
RTVSPost2010PropOp50
 70
     0
102
RTVSPost2010Prop51ColorIndex
 90
      256
102
RTVSPost2010Prop51ColorRGB
 90
-16777216
102
RTVSPost2010PropOp51
 70
     0
102
RTVSPost2010Prop52
140
1.0
102
RTVSPost2010PropOp52
 70
     0
102
RTVSPost2010Prop53
 90
        2
102
RTVSPost2010PropOp53
 70
     0
102
RTVSPost2010Prop54
  1
strokes_ogs.tif
102
RTVSPost2010PropOp54
 70
     0
102
RTVSPost2010Prop55
280
     0
102
RTVSPost2010PropOp55
 70
     1
102
RTVSPost2010Prop56
140
1.0
102
RTVSPost2010PropOp56
 70
     0
102
RTVSPost2010Prop57
140
1.0
102
RTVSPost2010PropOp57
 70
     0
102
RTVSPropertyOp0
 70
     0
102
RTVSPropertyOp1
 70
     0
102
RTVSPropertyOp2
 70
     0
102
RTVSPropertyOp3
 70
     0
102
RTVSPropertyOp4
 70
     0
102
RTVSPropertyOp5
 70
     0
102
RTVSPropertyOp6
 70
     0
102
RTVSPropertyOp7
 70
     0
102
RTVSPropertyOp8
 70
     0
102
RTVSPropertyOp9
 70
     0
102
RTVSPropertyOp10
 70
     0
102
RTVSPropertyOp11
 70
     0
102
RTVSPropertyOp12
 70
     0
102
RTVSPropertyOp13
 70
     0
102
RTVSPropertyOp14
 70
     2
102
RTVSPropertyOp15
 70
     0
102
RTVSPropertyOp16
 70
     0
102
RTVSPropertyOp17
 70
     0
102
RTVSPropertyOp18
 70
     0
102
RTVSPropertyOp19
 70
     0
102
RTVSPropertyOp20
 70
     0
102
RTVSPropertyOp21
 70
     0
102
RTVSPropertyOp22
 70
     0
102
RTVSPropertyOp23
 70
     0
102
RTVSPropertyOp24
 70
     0
102
RTVSPropertyOp25
 70
     0
102
RTVSPropertyOp26
 70
     0
102
RTVSPropertyOp27
 70
     0
102
RTVSPropertyOp28
 70
     1
102
RTVSPropertyOp29
 70
     1
102
RTVSPropertyOp30
 70
     1
102
RTVSPropertyOp31
 70
     1
102
RTVSPropertyOp32
 70
     1
102
RTVSPropertyOp33
 70
     1
102
RTVSPropertyOp34
 70
     1
102
RTVSPropertyOp35
 70
     1
102
RTVSPropertyOp36
 70
     1
102
RTVSPropertyOp37
 70
     0
102
RTVSPropertyOp38
 70
     0
102
RTVSPropertyOp39
 70
     0
102
RTVSPropertyOp40
 70
     0
102
RTVSPropertyOp41
 70
     0
102
RTVSPropertyOp42
 70
     0
102
RTVSPropertyOp43
 70
     0
102
RTVSPropertyOp44
 70
     0
102
RTVSPropertyOp45
 70
     1
102
RTVSPropertyOp46
 70
     0
102
RTVSPropertyOp47
 70
     0
102
RTVSPropertyOp48
 70
     0
102
RTVSPropertyOp49
 70
     1
102
RTVSPropertyOp50
 70
     0
102
RTVSPropertyOp51
 70
     0
102
RTVSPropertyOp52
 70
     0
102
RTVSPropertyOp53
 70
     0
102
RTVSPropertyOp54
 70
     0
102
RTVSPropertyOp55
 70
     1
102
RTVSPropertyOp56
 70
     0
102
RTVSPropertyOp57
 70
     0
102
RTVSPropertyOp58
 70
     0
102
RTVSPropertyOp59
 70
     0
102
RTVSPropertyOp60
 70
     0
102
RTVSPropertyOp61
 70
     0
102
RTVSPropertyOp62
 70
     0
  0
XRECORD
  5
8CA
102
{ACAD_REACTORS
330
8C9
102
}
330
8C9
100
AcDbXrecord
280
     1
102
RTVSPost2010Prop28
280
     0
102
RTVSPost2010PropOp28
 70
     1
102
RTVSPost2010Prop29
280
     1
102
RTVSPost2010PropOp29
 70
     1
102
RTVSPost2010Prop30
280
     1
102
RTVSPost2010PropOp30
 70
     1
102
RTVSPost2010Prop31
280
     0
102
RTVSPost2010PropOp31
 70
     1
102
RTVSPost2010Prop32
280
     0
102
RTVSPost2010PropOp32
 70
     1
102
RTVSPost2010Prop33
280
     0
102
RTVSPost2010PropOp33
 70
     1
102
RTVSPost2010Prop34
280
     0
102
RTVSPost2010PropOp34
 70
     1
102
RTVSPost2010Prop35
280
     0
102
RTVSPost2010PropOp35
 70
     1
102
RTVSPost2010Prop36
280
     0
102
RTVSPost2010PropOp36
 70
     1
102
RTVSPost2010Prop37
 90
       50
102
RTVSPost2010PropOp37
 70
     1
102
RTVSPost2010Prop38
140
0.0
102
RTVSPost2010PropOp38
 70
     1
102
RTVSPost2010Prop39
140
1.0
102
RTVSPost2010PropOp39
 70
     1
102
RTVSPost2010Prop40
 90
        0
102
RTVSPost2010PropOp40
 70
     1
102
RTVSPost2010Prop41ColorIndex
 90
       18
102
RTVSPost2010Prop41ColorRGB
 90
        0
102
RTVSPost2010PropOp41
 70
     1
102
RTVSPost2010Prop42
 90
       50
102
RTVSPost2010PropOp42
 70
     1
102
RTVSPost2010Prop43
 90
        3
102
RTVSPost2010PropOp43
 70
     1
102
RTVSPost2010Prop44ColorIndex
 90
        5
102
RTVSPost2010Prop44ColorRGB
 90
      255
102
RTVSPost2010PropOp44
 70
     1
102
RTVSPost2010Prop45
280
     0
102
RTVSPost2010PropOp45
 70
     1
102
RTVSPost2010Prop46
 90
       50
102
RTVSPost2010PropOp46
 70
     1
102
RTVSPost2010Prop47
 90
       50
102
RTVSPost2010PropOp47
 70
     1
102
RTVSPost2010Prop48
 90
       50
102
RTVSPost2010PropOp48
 70
     1
102
RTVSPost2010Prop49
280
     0
102
RTVSPost2010PropOp49
 70
     1
102
RTVSPost2010Prop50
 90
       50
102
RTVSPost2010PropOp50
 70
     1
102
RTVSPost2010Prop51ColorIndex
 90
      256
102
RTVSPost2010Prop51ColorRGB
 90
-16777216
102
RTVSPost2010PropOp51
 70
     0
102
RTVSPost2010Prop52
140
1.0
102
RTVSPost2010PropOp52
 70
     0
102
RTVSPost2010Prop53
 90
        2
102
RTVSPost2010PropOp53
 70
     1
102
RTVSPost2010Prop54
  1
strokes_ogs.tif
102
RTVSPost2010PropOp54
 70
     1
102
RTVSPost2010Prop55
280
     0
102
RTVSPost2010PropOp55
 70
     1
102
RTVSPost2010Prop56
140
1.0
102
RTVSPost2010PropOp56
 70
     1
102
RTVSPost2010Prop57
140
1.0
102
RTVSPost2010PropOp57
 70
     1
102
RTVSPropertyOp0
 70
     1
102
RTVSPropertyOp1
 70
     1
102
RTVSPropertyOp2
 70
     1
102
RTVSPropertyOp3
 70
     1
102
RTVSPropertyOp4
 70
     1
102
RTVSPropertyOp5
 70
     1
102
RTVSPropertyOp6
 70
     1
102
RTVSPropertyOp7
 70
     1
102
RTVSPropertyOp8
 70
     1
102
RTVSPropertyOp9
 70
     1
102
RTVSPropertyOp10
 70
     1
102
RTVSPropertyOp11
 70
     1
102
RTVSPropertyOp12
 70
     1
102
RTVSPropertyOp13
 70
     1
102
RTVSPropertyOp14
 70
     1
102
RTVSPropertyOp15
 70
     1
102
RTVSPropertyOp16
 70
     1
102
RTVSPropertyOp17
 70
     1
102
RTVSPropertyOp18
 70
     1
102
RTVSPropertyOp19
 70
     1
102
RTVSPropertyOp20
 70
     1
102
RTVSPropertyOp21
 70
     1
102
RTVSPropertyOp22
 70
     1
102
RTVSPropertyOp23
 70
     1
102
RTVSPropertyOp24
 70
     1
102
RTVSPropertyOp25
 70
     1
102
RTVSPropertyOp26
 70
     1
102
RTVSPropertyOp27
 70
     1
102
RTVSPropertyOp28
 70
     1
102
RTVSPropertyOp29
 70
     1
102
RTVSPropertyOp30
 70
     1
102
RTVSPropertyOp31
 70
     1
102
RTVSPropertyOp32
 70
     1
102
RTVSPropertyOp33
 70
     1
102
RTVSPropertyOp34
 70
     1
102
RTVSPropertyOp35
 70
     1
102
RTVSPropertyOp36
 70
     1
102
RTVSPropertyOp37
 70
     1
102
RTVSPropertyOp38
 70
     1
102
RTVSPropertyOp39
 70
     1
102
RTVSPropertyOp40
 70
     1
102
RTVSPropertyOp41
 70
     1
102
RTVSPropertyOp42
 70
     1
102
RTVSPropertyOp43
 70
     1
102
RTVSPropertyOp44
 70
     1
102
RTVSPropertyOp45
 70
     1
102
RTVSPropertyOp46
 70
     1
102
RTVSPropertyOp47
 70
     1
102
RTVSPropertyOp48
 70
     1
102
RTVSPropertyOp49
 70
     1
102
RTVSPropertyOp50
 70
     1
102
RTVSPropertyOp51
 70
     0
102
RTVSPropertyOp52
 70
     0
102
RTVSPropertyOp53
 70
     1
102
RTVSPropertyOp54
 70
     1
102
RTVSPropertyOp55
 70
     1
102
RTVSPropertyOp56
 70
     1
102
RTVSPropertyOp57
 70
     1
102
RTVSPropertyOp58
 70
     1
102
RTVSPropertyOp59
 70
     1
102
RTVSPropertyOp60
 70
     1
102
RTVSPropertyOp61
 70
     1
102
RTVSPropertyOp62
 70
     1
  0
XRECORD
  5
8E4
102
{ACAD_REACTORS
330
8E3
102
}
330
8E3
100
AcDbXrecord
280
     1
102
RTVSPost2010Prop28
280
     0
102
RTVSPost2010PropOp28
 70
     1
102
RTVSPost2010Prop29
280
     1
102
RTVSPost2010PropOp29
 70
     1
102
RTVSPost2010Prop30
280
     1
102
RTVSPost2010PropOp30
 70
     1
102
RTVSPost2010Prop31
280
     0
102
RTVSPost2010PropOp31
 70
     1
102
RTVSPost2010Prop32
280
     0
102
RTVSPost2010PropOp32
 70
     1
102
RTVSPost2010Prop33
280
     0
102
RTVSPost2010PropOp33
 70
     1
102
RTVSPost2010Prop34
280
     0
102
RTVSPost2010PropOp34
 70
     1
102
RTVSPost2010Prop35
280
     0
102
RTVSPost2010PropOp35
 70
     1
102
RTVSPost2010Prop36
280
     0
102
RTVSPost2010PropOp36
 70
     1
102
RTVSPost2010Prop37
 90
       50
102
RTVSPost2010PropOp37
 70
     1
102
RTVSPost2010Prop38
140
0.0
102
RTVSPost2010PropOp38
 70
     1
102
RTVSPost2010Prop39
140
1.0
102
RTVSPost2010PropOp39
 70
     1
102
RTVSPost2010Prop40
 90
        0
102
RTVSPost2010PropOp40
 70
     1
102
RTVSPost2010Prop41ColorIndex
 90
       18
102
RTVSPost2010Prop41ColorRGB
 90
        0
102
RTVSPost2010PropOp41
 70
     1
102
RTVSPost2010Prop42
 90
       50
102
RTVSPost2010PropOp42
 70
     1
102
RTVSPost2010Prop43
 90
        3
102
RTVSPost2010PropOp43
 70
     1
102
RTVSPost2010Prop44ColorIndex
 90
        5
102
RTVSPost2010Prop44ColorRGB
 90
      255
102
RTVSPost2010PropOp44
 70
     1
102
RTVSPost2010Prop45
280
     0
102
RTVSPost2010PropOp45
 70
     1
102
RTVSPost2010Prop46
 90
       50
102
RTVSPost2010PropOp46
 70
     1
102
RTVSPost2010Prop47
 90
       50
102
RTVSPost2010PropOp47
 70
     1
102
RTVSPost2010Prop48
 90
       50
102
RTVSPost2010PropOp48
 70
     1
102
RTVSPost2010Prop49
280
     0
102
RTVSPost2010PropOp49
 70
     1
102
RTVSPost2010Prop50
 90
       50
102
RTVSPost2010PropOp50
 70
     1
102
RTVSPost2010Prop51ColorIndex
 90
      256
102
RTVSPost2010Prop51ColorRGB
 90
-16777216
102
RTVSPost2010PropOp51
 70
     0
102
RTVSPost2010Prop52
140
1.0
102
RTVSPost2010PropOp52
 70
     0
102
RTVSPost2010Prop53
 90
        2
102
RTVSPost2010PropOp53
 70
     1
102
RTVSPost2010Prop54
  1
strokes_ogs.tif
102
RTVSPost2010PropOp54
 70
     1
102
RTVSPost2010Prop55
280
     0
102
RTVSPost2010PropOp55
 70
     1
102
RTVSPost2010Prop56
140
1.0
102
RTVSPost2010PropOp56
 70
     1
102
RTVSPost2010Prop57
140
1.0
102
RTVSPost2010PropOp57
 70
     1
102
RTVSPropertyOp0
 70
     1
102
RTVSPropertyOp1
 70
     1
102
RTVSPropertyOp2
 70
     1
102
RTVSPropertyOp3
 70
     1
102
RTVSPropertyOp4
 70
     1
102
RTVSPropertyOp5
 70
     1
102
RTVSPropertyOp6
 70
     1
102
RTVSPropertyOp7
 70
     1
102
RTVSPropertyOp8
 70
     1
102
RTVSPropertyOp9
 70
     1
102
RTVSPropertyOp10
 70
     1
102
RTVSPropertyOp11
 70
     1
102
RTVSPropertyOp12
 70
     1
102
RTVSPropertyOp13
 70
     1
102
RTVSPropertyOp14
 70
     1
102
RTVSPropertyOp15
 70
     1
102
RTVSPropertyOp16
 70
     1
102
RTVSPropertyOp17
 70
     1
102
RTVSPropertyOp18
 70
     1
102
RTVSPropertyOp19
 70
     1
102
RTVSPropertyOp20
 70
     1
102
RTVSPropertyOp21
 70
     1
102
RTVSPropertyOp22
 70
     1
102
RTVSPropertyOp23
 70
     1
102
RTVSPropertyOp24
 70
     1
102
RTVSPropertyOp25
 70
     1
102
RTVSPropertyOp26
 70
     1
102
RTVSPropertyOp27
 70
     1
102
RTVSPropertyOp28
 70
     1
102
RTVSPropertyOp29
 70
     1
102
RTVSPropertyOp30
 70
     1
102
RTVSPropertyOp31
 70
     1
102
RTVSPropertyOp32
 70
     1
102
RTVSPropertyOp33
 70
     1
102
RTVSPropertyOp34
 70
     1
102
RTVSPropertyOp35
 70
     1
102
RTVSPropertyOp36
 70
     1
102
RTVSPropertyOp37
 70
     1
102
RTVSPropertyOp38
 70
     1
102
RTVSPropertyOp39
 70
     1
102
RTVSPropertyOp40
 70
     1
102
RTVSPropertyOp41
 70
     1
102
RTVSPropertyOp42
 70
     1
102
RTVSPropertyOp43
 70
     1
102
RTVSPropertyOp44
 70
     1
102
RTVSPropertyOp45
 70
     1
102
RTVSPropertyOp46
 70
     1
102
RTVSPropertyOp47
 70
     1
102
RTVSPropertyOp48
 70
     1
102
RTVSPropertyOp49
 70
     1
102
RTVSPropertyOp50
 70
     1
102
RTVSPropertyOp51
 70
     0
102
RTVSPropertyOp52
 70
     0
102
RTVSPropertyOp53
 70
     1
102
RTVSPropertyOp54
 70
     1
102
RTVSPropertyOp55
 70
     1
102
RTVSPropertyOp56
 70
     1
102
RTVSPropertyOp57
 70
     1
102
RTVSPropertyOp58
 70
     1
102
RTVSPropertyOp59
 70
     1
102
RTVSPropertyOp60
 70
     1
102
RTVSPropertyOp61
 70
     1
102
RTVSPropertyOp62
 70
     1
  0
XRECORD
  5
8E2
102
{ACAD_REACTORS
330
8E1
102
}
330
8E1
100
AcDbXrecord
280
     1
102
RTVSPost2010Prop28
280
     0
102
RTVSPost2010PropOp28
 70
     1
102
RTVSPost2010Prop29
280
     1
102
RTVSPost2010PropOp29
 70
     1
102
RTVSPost2010Prop30
280
     1
102
RTVSPost2010PropOp30
 70
     1
102
RTVSPost2010Prop31
280
     0
102
RTVSPost2010PropOp31
 70
     1
102
RTVSPost2010Prop32
280
     0
102
RTVSPost2010PropOp32
 70
     1
102
RTVSPost2010Prop33
280
     0
102
RTVSPost2010PropOp33
 70
     1
102
RTVSPost2010Prop34
280
     0
102
RTVSPost2010PropOp34
 70
     1
102
RTVSPost2010Prop35
280
     0
102
RTVSPost2010PropOp35
 70
     1
102
RTVSPost2010Prop36
280
     0
102
RTVSPost2010PropOp36
 70
     1
102
RTVSPost2010Prop37
 90
       50
102
RTVSPost2010PropOp37
 70
     1
102
RTVSPost2010Prop38
140
0.0
102
RTVSPost2010PropOp38
 70
     1
102
RTVSPost2010Prop39
140
1.0
102
RTVSPost2010PropOp39
 70
     1
102
RTVSPost2010Prop40
 90
        0
102
RTVSPost2010PropOp40
 70
     1
102
RTVSPost2010Prop41ColorIndex
 90
       18
102
RTVSPost2010Prop41ColorRGB
 90
        0
102
RTVSPost2010PropOp41
 70
     1
102
RTVSPost2010Prop42
 90
       50
102
RTVSPost2010PropOp42
 70
     1
102
RTVSPost2010Prop43
 90
        3
102
RTVSPost2010PropOp43
 70
     1
102
RTVSPost2010Prop44ColorIndex
 90
        5
102
RTVSPost2010Prop44ColorRGB
 90
      255
102
RTVSPost2010PropOp44
 70
     1
102
RTVSPost2010Prop45
280
     0
102
RTVSPost2010PropOp45
 70
     1
102
RTVSPost2010Prop46
 90
       50
102
RTVSPost2010PropOp46
 70
     1
102
RTVSPost2010Prop47
 90
       50
102
RTVSPost2010PropOp47
 70
     1
102
RTVSPost2010Prop48
 90
       50
102
RTVSPost2010PropOp48
 70
     1
102
RTVSPost2010Prop49
280
     0
102
RTVSPost2010PropOp49
 70
     1
102
RTVSPost2010Prop50
 90
       50
102
RTVSPost2010PropOp50
 70
     1
102
RTVSPost2010Prop51ColorIndex
 90
      256
102
RTVSPost2010Prop51ColorRGB
 90
-16777216
102
RTVSPost2010PropOp51
 70
     0
102
RTVSPost2010Prop52
140
1.0
102
RTVSPost2010PropOp52
 70
     0
102
RTVSPost2010Prop53
 90
        2
102
RTVSPost2010PropOp53
 70
     1
102
RTVSPost2010Prop54
  1
strokes_ogs.tif
102
RTVSPost2010PropOp54
 70
     1
102
RTVSPost2010Prop55
280
     0
102
RTVSPost2010PropOp55
 70
     1
102
RTVSPost2010Prop56
140
1.0
102
RTVSPost2010PropOp56
 70
     1
102
RTVSPost2010Prop57
140
1.0
102
RTVSPost2010PropOp57
 70
     1
102
RTVSPropertyOp0
 70
     1
102
RTVSPropertyOp1
 70
     1
102
RTVSPropertyOp2
 70
     1
102
RTVSPropertyOp3
 70
     1
102
RTVSPropertyOp4
 70
     1
102
RTVSPropertyOp5
 70
     1
102
RTVSPropertyOp6
 70
     1
102
RTVSPropertyOp7
 70
     1
102
RTVSPropertyOp8
 70
     1
102
RTVSPropertyOp9
 70
     1
102
RTVSPropertyOp10
 70
     1
102
RTVSPropertyOp11
 70
     1
102
RTVSPropertyOp12
 70
     1
102
RTVSPropertyOp13
 70
     1
102
RTVSPropertyOp14
 70
     1
102
RTVSPropertyOp15
 70
     1
102
RTVSPropertyOp16
 70
     1
102
RTVSPropertyOp17
 70
     1
102
RTVSPropertyOp18
 70
     1
102
RTVSPropertyOp19
 70
     1
102
RTVSPropertyOp20
 70
     1
102
RTVSPropertyOp21
 70
     1
102
RTVSPropertyOp22
 70
     1
102
RTVSPropertyOp23
 70
     1
102
RTVSPropertyOp24
 70
     1
102
RTVSPropertyOp25
 70
     1
102
RTVSPropertyOp26
 70
     1
102
RTVSPropertyOp27
 70
     1
102
RTVSPropertyOp28
 70
     1
102
RTVSPropertyOp29
 70
     1
102
RTVSPropertyOp30
 70
     1
102
RTVSPropertyOp31
 70
     1
102
RTVSPropertyOp32
 70
     1
102
RTVSPropertyOp33
 70
     1
102
RTVSPropertyOp34
 70
     1
102
RTVSPropertyOp35
 70
     1
102
RTVSPropertyOp36
 70
     1
102
RTVSPropertyOp37
 70
     1
102
RTVSPropertyOp38
 70
     1
102
RTVSPropertyOp39
 70
     1
102
RTVSPropertyOp40
 70
     1
102
RTVSPropertyOp41
 70
     1
102
RTVSPropertyOp42
 70
     1
102
RTVSPropertyOp43
 70
     1
102
RTVSPropertyOp44
 70
     1
102
RTVSPropertyOp45
 70
     1
102
RTVSPropertyOp46
 70
     1
102
RTVSPropertyOp47
 70
     1
102
RTVSPropertyOp48
 70
     1
102
RTVSPropertyOp49
 70
     1
102
RTVSPropertyOp50
 70
     1
102
RTVSPropertyOp51
 70
     0
102
RTVSPropertyOp52
 70
     0
102
RTVSPropertyOp53
 70
     1
102
RTVSPropertyOp54
 70
     1
102
RTVSPropertyOp55
 70
     1
102
RTVSPropertyOp56
 70
     1
102
RTVSPropertyOp57
 70
     1
102
RTVSPropertyOp58
 70
     1
102
RTVSPropertyOp59
 70
     1
102
RTVSPropertyOp60
 70
     1
102
RTVSPropertyOp61
 70
     1
102
RTVSPropertyOp62
 70
     1
  0
XRECORD
  5
8DC
102
{ACAD_REACTORS
330
8DB
102
}
330
8DB
100
AcDbXrecord
280
     1
102
RTVSPost2010Prop28
280
     0
102
RTVSPost2010PropOp28
 70
     1
102
RTVSPost2010Prop29
280
     1
102
RTVSPost2010PropOp29
 70
     1
102
RTVSPost2010Prop30
280
     1
102
RTVSPost2010PropOp30
 70
     1
102
RTVSPost2010Prop31
280
     0
102
RTVSPost2010PropOp31
 70
     1
102
RTVSPost2010Prop32
280
     0
102
RTVSPost2010PropOp32
 70
     1
102
RTVSPost2010Prop33
280
     0
102
RTVSPost2010PropOp33
 70
     1
102
RTVSPost2010Prop34
280
     0
102
RTVSPost2010PropOp34
 70
     1
102
RTVSPost2010Prop35
280
     0
102
RTVSPost2010PropOp35
 70
     1
102
RTVSPost2010Prop36
280
     0
102
RTVSPost2010PropOp36
 70
     1
102
RTVSPost2010Prop37
 90
       50
102
RTVSPost2010PropOp37
 70
     1
102
RTVSPost2010Prop38
140
0.0
102
RTVSPost2010PropOp38
 70
     1
102
RTVSPost2010Prop39
140
1.0
102
RTVSPost2010PropOp39
 70
     1
102
RTVSPost2010Prop40
 90
        0
102
RTVSPost2010PropOp40
 70
     1
102
RTVSPost2010Prop41ColorIndex
 90
       18
102
RTVSPost2010Prop41ColorRGB
 90
        0
102
RTVSPost2010PropOp41
 70
     1
102
RTVSPost2010Prop42
 90
       50
102
RTVSPost2010PropOp42
 70
     1
102
RTVSPost2010Prop43
 90
        3
102
RTVSPost2010PropOp43
 70
     1
102
RTVSPost2010Prop44ColorIndex
 90
        5
102
RTVSPost2010Prop44ColorRGB
 90
      255
102
RTVSPost2010PropOp44
 70
     1
102
RTVSPost2010Prop45
280
     0
102
RTVSPost2010PropOp45
 70
     1
102
RTVSPost2010Prop46
 90
       50
102
RTVSPost2010PropOp46
 70
     1
102
RTVSPost2010Prop47
 90
       50
102
RTVSPost2010PropOp47
 70
     1
102
RTVSPost2010Prop48
 90
       50
102
RTVSPost2010PropOp48
 70
     1
102
RTVSPost2010Prop49
280
     0
102
RTVSPost2010PropOp49
 70
     1
102
RTVSPost2010Prop50
 90
       50
102
RTVSPost2010PropOp50
 70
     1
102
RTVSPost2010Prop51ColorIndex
 90
      256
102
RTVSPost2010Prop51ColorRGB
 90
-16777216
102
RTVSPost2010PropOp51
 70
     0
102
RTVSPost2010Prop52
140
1.0
102
RTVSPost2010PropOp52
 70
     0
102
RTVSPost2010Prop53
 90
        2
102
RTVSPost2010PropOp53
 70
     1
102
RTVSPost2010Prop54
  1
strokes_ogs.tif
102
RTVSPost2010PropOp54
 70
     1
102
RTVSPost2010Prop55
280
     0
102
RTVSPost2010PropOp55
 70
     1
102
RTVSPost2010Prop56
140
1.0
102
RTVSPost2010PropOp56
 70
     1
102
RTVSPost2010Prop57
140
1.0
102
RTVSPost2010PropOp57
 70
     1
102
RTVSPropertyOp0
 70
     1
102
RTVSPropertyOp1
 70
     1
102
RTVSPropertyOp2
 70
     1
102
RTVSPropertyOp3
 70
     1
102
RTVSPropertyOp4
 70
     1
102
RTVSPropertyOp5
 70
     1
102
RTVSPropertyOp6
 70
     1
102
RTVSPropertyOp7
 70
     1
102
RTVSPropertyOp8
 70
     1
102
RTVSPropertyOp9
 70
     1
102
RTVSPropertyOp10
 70
     1
102
RTVSPropertyOp11
 70
     1
102
RTVSPropertyOp12
 70
     1
102
RTVSPropertyOp13
 70
     1
102
RTVSPropertyOp14
 70
     1
102
RTVSPropertyOp15
 70
     1
102
RTVSPropertyOp16
 70
     1
102
RTVSPropertyOp17
 70
     1
102
RTVSPropertyOp18
 70
     1
102
RTVSPropertyOp19
 70
     1
102
RTVSPropertyOp20
 70
     1
102
RTVSPropertyOp21
 70
     1
102
RTVSPropertyOp22
 70
     1
102
RTVSPropertyOp23
 70
     1
102
RTVSPropertyOp24
 70
     1
102
RTVSPropertyOp25
 70
     1
102
RTVSPropertyOp26
 70
     1
102
RTVSPropertyOp27
 70
     1
102
RTVSPropertyOp28
 70
     1
102
RTVSPropertyOp29
 70
     1
102
RTVSPropertyOp30
 70
     1
102
RTVSPropertyOp31
 70
     1
102
RTVSPropertyOp32
 70
     1
102
RTVSPropertyOp33
 70
     1
102
RTVSPropertyOp34
 70
     1
102
RTVSPropertyOp35
 70
     1
102
RTVSPropertyOp36
 70
     1
102
RTVSPropertyOp37
 70
     1
102
RTVSPropertyOp38
 70
     1
102
RTVSPropertyOp39
 70
     1
102
RTVSPropertyOp40
 70
     1
102
RTVSPropertyOp41
 70
     1
102
RTVSPropertyOp42
 70
     1
102
RTVSPropertyOp43
 70
     1
102
RTVSPropertyOp44
 70
     1
102
RTVSPropertyOp45
 70
     1
102
RTVSPropertyOp46
 70
     1
102
RTVSPropertyOp47
 70
     1
102
RTVSPropertyOp48
 70
     1
102
RTVSPropertyOp49
 70
     1
102
RTVSPropertyOp50
 70
     1
102
RTVSPropertyOp51
 70
     0
102
RTVSPropertyOp52
 70
     0
102
RTVSPropertyOp53
 70
     1
102
RTVSPropertyOp54
 70
     1
102
RTVSPropertyOp55
 70
     1
102
RTVSPropertyOp56
 70
     1
102
RTVSPropertyOp57
 70
     1
102
RTVSPropertyOp58
 70
     1
102
RTVSPropertyOp59
 70
     1
102
RTVSPropertyOp60
 70
     1
102
RTVSPropertyOp61
 70
     1
102
RTVSPropertyOp62
 70
     1
  0
XRECORD
  5
8DE
102
{ACAD_REACTORS
330
8DD
102
}
330
8DD
100
AcDbXrecord
280
     1
102
RTVSPost2010Prop28
280
     0
102
RTVSPost2010PropOp28
 70
     1
102
RTVSPost2010Prop29
280
     1
102
RTVSPost2010PropOp29
 70
     1
102
RTVSPost2010Prop30
280
     1
102
RTVSPost2010PropOp30
 70
     1
102
RTVSPost2010Prop31
280
     0
102
RTVSPost2010PropOp31
 70
     1
102
RTVSPost2010Prop32
280
     0
102
RTVSPost2010PropOp32
 70
     1
102
RTVSPost2010Prop33
280
     0
102
RTVSPost2010PropOp33
 70
     1
102
RTVSPost2010Prop34
280
     0
102
RTVSPost2010PropOp34
 70
     1
102
RTVSPost2010Prop35
280
     0
102
RTVSPost2010PropOp35
 70
     1
102
RTVSPost2010Prop36
280
     0
102
RTVSPost2010PropOp36
 70
     1
102
RTVSPost2010Prop37
 90
       50
102
RTVSPost2010PropOp37
 70
     1
102
RTVSPost2010Prop38
140
0.0
102
RTVSPost2010PropOp38
 70
     1
102
RTVSPost2010Prop39
140
1.0
102
RTVSPost2010PropOp39
 70
     1
102
RTVSPost2010Prop40
 90
        0
102
RTVSPost2010PropOp40
 70
     1
102
RTVSPost2010Prop41ColorIndex
 90
       18
102
RTVSPost2010Prop41ColorRGB
 90
        0
102
RTVSPost2010PropOp41
 70
     1
102
RTVSPost2010Prop42
 90
       50
102
RTVSPost2010PropOp42
 70
     1
102
RTVSPost2010Prop43
 90
        3
102
RTVSPost2010PropOp43
 70
     1
102
RTVSPost2010Prop44ColorIndex
 90
        5
102
RTVSPost2010Prop44ColorRGB
 90
      255
102
RTVSPost2010PropOp44
 70
     1
102
RTVSPost2010Prop45
280
     0
102
RTVSPost2010PropOp45
 70
     1
102
RTVSPost2010Prop46
 90
       50
102
RTVSPost2010PropOp46
 70
     1
102
RTVSPost2010Prop47
 90
       50
102
RTVSPost2010PropOp47
 70
     1
102
RTVSPost2010Prop48
 90
       50
102
RTVSPost2010PropOp48
 70
     1
102
RTVSPost2010Prop49
280
     0
102
RTVSPost2010PropOp49
 70
     1
102
RTVSPost2010Prop50
 90
       50
102
RTVSPost2010PropOp50
 70
     1
102
RTVSPost2010Prop51ColorIndex
 90
      256
102
RTVSPost2010Prop51ColorRGB
 90
-16777216
102
RTVSPost2010PropOp51
 70
     0
102
RTVSPost2010Prop52
140
1.0
102
RTVSPost2010PropOp52
 70
     0
102
RTVSPost2010Prop53
 90
        2
102
RTVSPost2010PropOp53
 70
     1
102
RTVSPost2010Prop54
  1
strokes_ogs.tif
102
RTVSPost2010PropOp54
 70
     1
102
RTVSPost2010Prop55
280
     0
102
RTVSPost2010PropOp55
 70
     1
102
RTVSPost2010Prop56
140
1.0
102
RTVSPost2010PropOp56
 70
     1
102
RTVSPost2010Prop57
140
1.0
102
RTVSPost2010PropOp57
 70
     1
102
RTVSPropertyOp0
 70
     1
102
RTVSPropertyOp1
 70
     1
102
RTVSPropertyOp2
 70
     1
102
RTVSPropertyOp3
 70
     1
102
RTVSPropertyOp4
 70
     1
102
RTVSPropertyOp5
 70
     1
102
RTVSPropertyOp6
 70
     1
102
RTVSPropertyOp7
 70
     1
102
RTVSPropertyOp8
 70
     1
102
RTVSPropertyOp9
 70
     1
102
RTVSPropertyOp10
 70
     1
102
RTVSPropertyOp11
 70
     1
102
RTVSPropertyOp12
 70
     1
102
RTVSPropertyOp13
 70
     1
102
RTVSPropertyOp14
 70
     1
102
RTVSPropertyOp15
 70
     1
102
RTVSPropertyOp16
 70
     1
102
RTVSPropertyOp17
 70
     1
102
RTVSPropertyOp18
 70
     1
102
RTVSPropertyOp19
 70
     1
102
RTVSPropertyOp20
 70
     1
102
RTVSPropertyOp21
 70
     1
102
RTVSPropertyOp22
 70
     1
102
RTVSPropertyOp23
 70
     1
102
RTVSPropertyOp24
 70
     1
102
RTVSPropertyOp25
 70
     1
102
RTVSPropertyOp26
 70
     1
102
RTVSPropertyOp27
 70
     1
102
RTVSPropertyOp28
 70
     1
102
RTVSPropertyOp29
 70
     1
102
RTVSPropertyOp30
 70
     1
102
RTVSPropertyOp31
 70
     1
102
RTVSPropertyOp32
 70
     1
102
RTVSPropertyOp33
 70
     1
102
RTVSPropertyOp34
 70
     1
102
RTVSPropertyOp35
 70
     1
102
RTVSPropertyOp36
 70
     1
102
RTVSPropertyOp37
 70
     1
102
RTVSPropertyOp38
 70
     1
102
RTVSPropertyOp39
 70
     1
102
RTVSPropertyOp40
 70
     1
102
RTVSPropertyOp41
 70
     1
102
RTVSPropertyOp42
 70
     1
102
RTVSPropertyOp43
 70
     1
102
RTVSPropertyOp44
 70
     1
102
RTVSPropertyOp45
 70
     1
102
RTVSPropertyOp46
 70
     1
102
RTVSPropertyOp47
 70
     1
102
RTVSPropertyOp48
 70
     1
102
RTVSPropertyOp49
 70
     1
102
RTVSPropertyOp50
 70
     1
102
RTVSPropertyOp51
 70
     0
102
RTVSPropertyOp52
 70
     0
102
RTVSPropertyOp53
 70
     1
102
RTVSPropertyOp54
 70
     1
102
RTVSPropertyOp55
 70
     1
102
RTVSPropertyOp56
 70
     1
102
RTVSPropertyOp57
 70
     1
102
RTVSPropertyOp58
 70
     1
102
RTVSPropertyOp59
 70
     1
102
RTVSPropertyOp60
 70
     1
102
RTVSPropertyOp61
 70
     1
102
RTVSPropertyOp62
 70
     1
  0
XRECORD
  5
8D0
102
{ACAD_REACTORS
330
8CF
102
}
330
8CF
100
AcDbXrecord
280
     1
102
RTVSPost2010Prop28
280
     0
102
RTVSPost2010PropOp28
 70
     1
102
RTVSPost2010Prop29
280
     1
102
RTVSPost2010PropOp29
 70
     1
102
RTVSPost2010Prop30
280
     1
102
RTVSPost2010PropOp30
 70
     1
102
RTVSPost2010Prop31
280
     0
102
RTVSPost2010PropOp31
 70
     1
102
RTVSPost2010Prop32
280
     0
102
RTVSPost2010PropOp32
 70
     1
102
RTVSPost2010Prop33
280
     0
102
RTVSPost2010PropOp33
 70
     1
102
RTVSPost2010Prop34
280
     0
102
RTVSPost2010PropOp34
 70
     1
102
RTVSPost2010Prop35
280
     0
102
RTVSPost2010PropOp35
 70
     1
102
RTVSPost2010Prop36
280
     0
102
RTVSPost2010PropOp36
 70
     1
102
RTVSPost2010Prop37
 90
       50
102
RTVSPost2010PropOp37
 70
     1
102
RTVSPost2010Prop38
140
0.0
102
RTVSPost2010PropOp38
 70
     1
102
RTVSPost2010Prop39
140
1.0
102
RTVSPost2010PropOp39
 70
     1
102
RTVSPost2010Prop40
 90
        0
102
RTVSPost2010PropOp40
 70
     1
102
RTVSPost2010Prop41ColorIndex
 90
       18
102
RTVSPost2010Prop41ColorRGB
 90
        0
102
RTVSPost2010PropOp41
 70
     1
102
RTVSPost2010Prop42
 90
       50
102
RTVSPost2010PropOp42
 70
     1
102
RTVSPost2010Prop43
 90
        3
102
RTVSPost2010PropOp43
 70
     1
102
RTVSPost2010Prop44ColorIndex
 90
        5
102
RTVSPost2010Prop44ColorRGB
 90
      255
102
RTVSPost2010PropOp44
 70
     1
102
RTVSPost2010Prop45
280
     0
102
RTVSPost2010PropOp45
 70
     1
102
RTVSPost2010Prop46
 90
       50
102
RTVSPost2010PropOp46
 70
     1
102
RTVSPost2010Prop47
 90
       50
102
RTVSPost2010PropOp47
 70
     1
102
RTVSPost2010Prop48
 90
       50
102
RTVSPost2010PropOp48
 70
     1
102
RTVSPost2010Prop49
280
     0
102
RTVSPost2010PropOp49
 70
     1
102
RTVSPost2010Prop50
 90
       50
102
RTVSPost2010PropOp50
 70
     1
102
RTVSPost2010Prop51ColorIndex
 90
      256
102
RTVSPost2010Prop51ColorRGB
 90
-16777216
102
RTVSPost2010PropOp51
 70
     0
102
RTVSPost2010Prop52
140
1.0
102
RTVSPost2010PropOp52
 70
     0
102
RTVSPost2010Prop53
 90
        2
102
RTVSPost2010PropOp53
 70
     1
102
RTVSPost2010Prop54
  1
strokes_ogs.tif
102
RTVSPost2010PropOp54
 70
     1
102
RTVSPost2010Prop55
280
     0
102
RTVSPost2010PropOp55
 70
     1
102
RTVSPost2010Prop56
140
1.0
102
RTVSPost2010PropOp56
 70
     1
102
RTVSPost2010Prop57
140
1.0
102
RTVSPost2010PropOp57
 70
     1
102
RTVSPropertyOp0
 70
     1
102
RTVSPropertyOp1
 70
     1
102
RTVSPropertyOp2
 70
     1
102
RTVSPropertyOp3
 70
     1
102
RTVSPropertyOp4
 70
     1
102
RTVSPropertyOp5
 70
     1
102
RTVSPropertyOp6
 70
     1
102
RTVSPropertyOp7
 70
     1
102
RTVSPropertyOp8
 70
     1
102
RTVSPropertyOp9
 70
     1
102
RTVSPropertyOp10
 70
     1
102
RTVSPropertyOp11
 70
     1
102
RTVSPropertyOp12
 70
     1
102
RTVSPropertyOp13
 70
     1
102
RTVSPropertyOp14
 70
     1
102
RTVSPropertyOp15
 70
     1
102
RTVSPropertyOp16
 70
     1
102
RTVSPropertyOp17
 70
     1
102
RTVSPropertyOp18
 70
     1
102
RTVSPropertyOp19
 70
     1
102
RTVSPropertyOp20
 70
     1
102
RTVSPropertyOp21
 70
     1
102
RTVSPropertyOp22
 70
     1
102
RTVSPropertyOp23
 70
     1
102
RTVSPropertyOp24
 70
     1
102
RTVSPropertyOp25
 70
     1
102
RTVSPropertyOp26
 70
     1
102
RTVSPropertyOp27
 70
     1
102
RTVSPropertyOp28
 70
     1
102
RTVSPropertyOp29
 70
     1
102
RTVSPropertyOp30
 70
     1
102
RTVSPropertyOp31
 70
     1
102
RTVSPropertyOp32
 70
     1
102
RTVSPropertyOp33
 70
     1
102
RTVSPropertyOp34
 70
     1
102
RTVSPropertyOp35
 70
     1
102
RTVSPropertyOp36
 70
     1
102
RTVSPropertyOp37
 70
     1
102
RTVSPropertyOp38
 70
     1
102
RTVSPropertyOp39
 70
     1
102
RTVSPropertyOp40
 70
     1
102
RTVSPropertyOp41
 70
     1
102
RTVSPropertyOp42
 70
     1
102
RTVSPropertyOp43
 70
     1
102
RTVSPropertyOp44
 70
     1
102
RTVSPropertyOp45
 70
     1
102
RTVSPropertyOp46
 70
     1
102
RTVSPropertyOp47
 70
     1
102
RTVSPropertyOp48
 70
     1
102
RTVSPropertyOp49
 70
     1
102
RTVSPropertyOp50
 70
     1
102
RTVSPropertyOp51
 70
     0
102
RTVSPropertyOp52
 70
     0
102
RTVSPropertyOp53
 70
     1
102
RTVSPropertyOp54
 70
     1
102
RTVSPropertyOp55
 70
     1
102
RTVSPropertyOp56
 70
     1
102
RTVSPropertyOp57
 70
     1
102
RTVSPropertyOp58
 70
     1
102
RTVSPropertyOp59
 70
     1
102
RTVSPropertyOp60
 70
     1
102
RTVSPropertyOp61
 70
     1
102
RTVSPropertyOp62
 70
     1
  0
XRECORD
  5
8D8
102
{ACAD_REACTORS
330
8D7
102
}
330
8D7
100
AcDbXrecord
280
     1
102
RTVSPost2010Prop28
280
     0
102
RTVSPost2010PropOp28
 70
     1
102
RTVSPost2010Prop29
280
     1
102
RTVSPost2010PropOp29
 70
     1
102
RTVSPost2010Prop30
280
     1
102
RTVSPost2010PropOp30
 70
     1
102
RTVSPost2010Prop31
280
     0
102
RTVSPost2010PropOp31
 70
     1
102
RTVSPost2010Prop32
280
     0
102
RTVSPost2010PropOp32
 70
     1
102
RTVSPost2010Prop33
280
     0
102
RTVSPost2010PropOp33
 70
     1
102
RTVSPost2010Prop34
280
     0
102
RTVSPost2010PropOp34
 70
     1
102
RTVSPost2010Prop35
280
     0
102
RTVSPost2010PropOp35
 70
     1
102
RTVSPost2010Prop36
280
     0
102
RTVSPost2010PropOp36
 70
     1
102
RTVSPost2010Prop37
 90
       50
102
RTVSPost2010PropOp37
 70
     1
102
RTVSPost2010Prop38
140
0.0
102
RTVSPost2010PropOp38
 70
     1
102
RTVSPost2010Prop39
140
1.0
102
RTVSPost2010PropOp39
 70
     1
102
RTVSPost2010Prop40
 90
        0
102
RTVSPost2010PropOp40
 70
     1
102
RTVSPost2010Prop41ColorIndex
 90
       18
102
RTVSPost2010Prop41ColorRGB
 90
        0
102
RTVSPost2010PropOp41
 70
     1
102
RTVSPost2010Prop42
 90
       50
102
RTVSPost2010PropOp42
 70
     1
102
RTVSPost2010Prop43
 90
        3
102
RTVSPost2010PropOp43
 70
     1
102
RTVSPost2010Prop44ColorIndex
 90
        5
102
RTVSPost2010Prop44ColorRGB
 90
      255
102
RTVSPost2010PropOp44
 70
     1
102
RTVSPost2010Prop45
280
     0
102
RTVSPost2010PropOp45
 70
     1
102
RTVSPost2010Prop46
 90
       50
102
RTVSPost2010PropOp46
 70
     1
102
RTVSPost2010Prop47
 90
       50
102
RTVSPost2010PropOp47
 70
     1
102
RTVSPost2010Prop48
 90
       50
102
RTVSPost2010PropOp48
 70
     1
102
RTVSPost2010Prop49
280
     0
102
RTVSPost2010PropOp49
 70
     1
102
RTVSPost2010Prop50
 90
       50
102
RTVSPost2010PropOp50
 70
     1
102
RTVSPost2010Prop51ColorIndex
 90
      256
102
RTVSPost2010Prop51ColorRGB
 90
-16777216
102
RTVSPost2010PropOp51
 70
     0
102
RTVSPost2010Prop52
140
1.0
102
RTVSPost2010PropOp52
 70
     0
102
RTVSPost2010Prop53
 90
        2
102
RTVSPost2010PropOp53
 70
     1
102
RTVSPost2010Prop54
  1
strokes_ogs.tif
102
RTVSPost2010PropOp54
 70
     1
102
RTVSPost2010Prop55
280
     0
102
RTVSPost2010PropOp55
 70
     1
102
RTVSPost2010Prop56
140
1.0
102
RTVSPost2010PropOp56
 70
     1
102
RTVSPost2010Prop57
140
1.0
102
RTVSPost2010PropOp57
 70
     1
102
RTVSPropertyOp0
 70
     1
102
RTVSPropertyOp1
 70
     1
102
RTVSPropertyOp2
 70
     1
102
RTVSPropertyOp3
 70
     1
102
RTVSPropertyOp4
 70
     1
102
RTVSPropertyOp5
 70
     1
102
RTVSPropertyOp6
 70
     1
102
RTVSPropertyOp7
 70
     1
102
RTVSPropertyOp8
 70
     1
102
RTVSPropertyOp9
 70
     1
102
RTVSPropertyOp10
 70
     1
102
RTVSPropertyOp11
 70
     1
102
RTVSPropertyOp12
 70
     1
102
RTVSPropertyOp13
 70
     1
102
RTVSPropertyOp14
 70
     1
102
RTVSPropertyOp15
 70
     1
102
RTVSPropertyOp16
 70
     1
102
RTVSPropertyOp17
 70
     1
102
RTVSPropertyOp18
 70
     1
102
RTVSPropertyOp19
 70
     1
102
RTVSPropertyOp20
 70
     1
102
RTVSPropertyOp21
 70
     1
102
RTVSPropertyOp22
 70
     1
102
RTVSPropertyOp23
 70
     1
102
RTVSPropertyOp24
 70
     1
102
RTVSPropertyOp25
 70
     1
102
RTVSPropertyOp26
 70
     1
102
RTVSPropertyOp27
 70
     1
102
RTVSPropertyOp28
 70
     1
102
RTVSPropertyOp29
 70
     1
102
RTVSPropertyOp30
 70
     1
102
RTVSPropertyOp31
 70
     1
102
RTVSPropertyOp32
 70
     1
102
RTVSPropertyOp33
 70
     1
102
RTVSPropertyOp34
 70
     1
102
RTVSPropertyOp35
 70
     1
102
RTVSPropertyOp36
 70
     1
102
RTVSPropertyOp37
 70
     1
102
RTVSPropertyOp38
 70
     1
102
RTVSPropertyOp39
 70
     1
102
RTVSPropertyOp40
 70
     1
102
RTVSPropertyOp41
 70
     1
102
RTVSPropertyOp42
 70
     1
102
RTVSPropertyOp43
 70
     1
102
RTVSPropertyOp44
 70
     1
102
RTVSPropertyOp45
 70
     1
102
RTVSPropertyOp46
 70
     1
102
RTVSPropertyOp47
 70
     1
102
RTVSPropertyOp48
 70
     1
102
RTVSPropertyOp49
 70
     1
102
RTVSPropertyOp50
 70
     1
102
RTVSPropertyOp51
 70
     0
102
RTVSPropertyOp52
 70
     0
102
RTVSPropertyOp53
 70
     1
102
RTVSPropertyOp54
 70
     1
102
RTVSPropertyOp55
 70
     1
102
RTVSPropertyOp56
 70
     1
102
RTVSPropertyOp57
 70
     1
102
RTVSPropertyOp58
 70
     1
102
RTVSPropertyOp59
 70
     1
102
RTVSPropertyOp60
 70
     1
102
RTVSPropertyOp61
 70
     1
102
RTVSPropertyOp62
 70
     1
  0
XRECORD
  5
8E0
102
{ACAD_REACTORS
330
8DF
102
}
330
8DF
100
AcDbXrecord
280
     1
102
RTVSPost2010Prop28
280
     0
102
RTVSPost2010PropOp28
 70
     1
102
RTVSPost2010Prop29
280
     1
102
RTVSPost2010PropOp29
 70
     1
102
RTVSPost2010Prop30
280
     1
102
RTVSPost2010PropOp30
 70
     1
102
RTVSPost2010Prop31
280
     0
102
RTVSPost2010PropOp31
 70
     1
102
RTVSPost2010Prop32
280
     0
102
RTVSPost2010PropOp32
 70
     1
102
RTVSPost2010Prop33
280
     0
102
RTVSPost2010PropOp33
 70
     1
102
RTVSPost2010Prop34
280
     0
102
RTVSPost2010PropOp34
 70
     1
102
RTVSPost2010Prop35
280
     0
102
RTVSPost2010PropOp35
 70
     1
102
RTVSPost2010Prop36
280
     0
102
RTVSPost2010PropOp36
 70
     1
102
RTVSPost2010Prop37
 90
       50
102
RTVSPost2010PropOp37
 70
     1
102
RTVSPost2010Prop38
140
0.0
102
RTVSPost2010PropOp38
 70
     1
102
RTVSPost2010Prop39
140
1.0
102
RTVSPost2010PropOp39
 70
     1
102
RTVSPost2010Prop40
 90
        0
102
RTVSPost2010PropOp40
 70
     1
102
RTVSPost2010Prop41ColorIndex
 90
       18
102
RTVSPost2010Prop41ColorRGB
 90
        0
102
RTVSPost2010PropOp41
 70
     1
102
RTVSPost2010Prop42
 90
       50
102
RTVSPost2010PropOp42
 70
     1
102
RTVSPost2010Prop43
 90
        3
102
RTVSPost2010PropOp43
 70
     1
102
RTVSPost2010Prop44ColorIndex
 90
        5
102
RTVSPost2010Prop44ColorRGB
 90
      255
102
RTVSPost2010PropOp44
 70
     1
102
RTVSPost2010Prop45
280
     0
102
RTVSPost2010PropOp45
 70
     1
102
RTVSPost2010Prop46
 90
       50
102
RTVSPost2010PropOp46
 70
     1
102
RTVSPost2010Prop47
 90
       50
102
RTVSPost2010PropOp47
 70
     1
102
RTVSPost2010Prop48
 90
       50
102
RTVSPost2010PropOp48
 70
     1
102
RTVSPost2010Prop49
280
     0
102
RTVSPost2010PropOp49
 70
     1
102
RTVSPost2010Prop50
 90
       50
102
RTVSPost2010PropOp50
 70
     1
102
RTVSPost2010Prop51ColorIndex
 90
      256
102
RTVSPost2010Prop51ColorRGB
 90
-16777216
102
RTVSPost2010PropOp51
 70
     0
102
RTVSPost2010Prop52
140
1.0
102
RTVSPost2010PropOp52
 70
     0
102
RTVSPost2010Prop53
 90
        2
102
RTVSPost2010PropOp53
 70
     1
102
RTVSPost2010Prop54
  1
strokes_ogs.tif
102
RTVSPost2010PropOp54
 70
     1
102
RTVSPost2010Prop55
280
     0
102
RTVSPost2010PropOp55
 70
     1
102
RTVSPost2010Prop56
140
1.0
102
RTVSPost2010PropOp56
 70
     1
102
RTVSPost2010Prop57
140
1.0
102
RTVSPost2010PropOp57
 70
     1
102
RTVSPropertyOp0
 70
     1
102
RTVSPropertyOp1
 70
     1
102
RTVSPropertyOp2
 70
     1
102
RTVSPropertyOp3
 70
     1
102
RTVSPropertyOp4
 70
     1
102
RTVSPropertyOp5
 70
     1
102
RTVSPropertyOp6
 70
     1
102
RTVSPropertyOp7
 70
     1
102
RTVSPropertyOp8
 70
     1
102
RTVSPropertyOp9
 70
     1
102
RTVSPropertyOp10
 70
     1
102
RTVSPropertyOp11
 70
     1
102
RTVSPropertyOp12
 70
     1
102
RTVSPropertyOp13
 70
     1
102
RTVSPropertyOp14
 70
     1
102
RTVSPropertyOp15
 70
     1
102
RTVSPropertyOp16
 70
     1
102
RTVSPropertyOp17
 70
     1
102
RTVSPropertyOp18
 70
     1
102
RTVSPropertyOp19
 70
     1
102
RTVSPropertyOp20
 70
     1
102
RTVSPropertyOp21
 70
     1
102
RTVSPropertyOp22
 70
     1
102
RTVSPropertyOp23
 70
     1
102
RTVSPropertyOp24
 70
     1
102
RTVSPropertyOp25
 70
     1
102
RTVSPropertyOp26
 70
     1
102
RTVSPropertyOp27
 70
     1
102
RTVSPropertyOp28
 70
     1
102
RTVSPropertyOp29
 70
     1
102
RTVSPropertyOp30
 70
     1
102
RTVSPropertyOp31
 70
     1
102
RTVSPropertyOp32
 70
     1
102
RTVSPropertyOp33
 70
     1
102
RTVSPropertyOp34
 70
     1
102
RTVSPropertyOp35
 70
     1
102
RTVSPropertyOp36
 70
     1
102
RTVSPropertyOp37
 70
     1
102
RTVSPropertyOp38
 70
     1
102
RTVSPropertyOp39
 70
     1
102
RTVSPropertyOp40
 70
     1
102
RTVSPropertyOp41
 70
     1
102
RTVSPropertyOp42
 70
     1
102
RTVSPropertyOp43
 70
     1
102
RTVSPropertyOp44
 70
     1
102
RTVSPropertyOp45
 70
     1
102
RTVSPropertyOp46
 70
     1
102
RTVSPropertyOp47
 70
     1
102
RTVSPropertyOp48
 70
     1
102
RTVSPropertyOp49
 70
     1
102
RTVSPropertyOp50
 70
     1
102
RTVSPropertyOp51
 70
     0
102
RTVSPropertyOp52
 70
     0
102
RTVSPropertyOp53
 70
     1
102
RTVSPropertyOp54
 70
     1
102
RTVSPropertyOp55
 70
     1
102
RTVSPropertyOp56
 70
     1
102
RTVSPropertyOp57
 70
     1
102
RTVSPropertyOp58
 70
     1
102
RTVSPropertyOp59
 70
     1
102
RTVSPropertyOp60
 70
     1
102
RTVSPropertyOp61
 70
     1
102
RTVSPropertyOp62
 70
     1
  0
ENDSEC
  0
EOF
