  0
SECTION
  2
HEADER
  9
$ACADVER
  1
AC1009
  9
$INSBASE
 10
0.0
 20
0.0
 30
0.0
  9
$EXTMIN
 10
-43.610809610023601
 20
-0.0031160970081032
 30
-0.0000000349181948
  9
$EXTMAX
 10
43.615784116759869
 20
45.003294601527642
 30
0.0000000814935746
  9
$LIMMIN
 10
0.0
 20
0.0
  9
$LIMMAX
 10
12.0
 20
9.0
  9
$ORTHOMODE
 70
     0
  9
$REGENMODE
 70
     1
  9
$FILLMODE
 70
     1
  9
$QTEXTMODE
 70
     0
  9
$MIRRTEXT
 70
     0
  9
$DRAGMODE
 70
     2
  9
$LTSCALE
 40
1.0
  9
$OSMODE
 70
   111
  9
$ATTMODE
 70
     1
  9
$TEXTSIZE
 40
0.2
  9
$TRACEWID
 40
0.05
  9
$TEXTSTYLE
  7
STANDARD
  9
$CLAYER
  8
0
  9
$CELTYPE
  6
BYLAYER
  9
$CECOLOR
 62
   256
  9
$DIMSCALE
 40
1.0
  9
$DIMASZ
 40
0.18
  9
$DIMEXO
 40
0.0625
  9
$DIMDLI
 40
0.38
  9
$DIMRND
 40
0.0
  9
$DIMDLE
 40
0.0
  9
$DIMEXE
 40
0.18
  9
$DIMTP
 40
0.0
  9
$DIMTM
 40
0.0
  9
$DIMTXT
 40
0.18
  9
$DIMCEN
 40
0.09
  9
$DIMTSZ
 40
0.0
  9
$DIMTOL
 70
     0
  9
$DIMLIM
 70
     0
  9
$DIMTIH
 70
     1
  9
$DIMTOH
 70
     1
  9
$DIMSE1
 70
     0
  9
$DIMSE2
 70
     0
  9
$DIMTAD
 70
     0
  9
$DIMZIN
 70
     0
  9
$DIMBLK
  1

  9
$DIMASO
 70
     1
  9
$DIMSHO
 70
     1
  9
$DIMPOST
  1

  9
$DIMAPOST
  1

  9
$DIMALT
 70
     0
  9
$DIMALTD
 70
     2
  9
$DIMALTF
 40
25.399999999999999
  9
$DIMLFAC
 40
1.0
  9
$DIMTOFL
 70
     0
  9
$DIMTVP
 40
0.0
  9
$DIMTIX
 70
     0
  9
$DIMSOXD
 70
     0
  9
$DIMSAH
 70
     0
  9
$DIMBLK1
  1

  9
$DIMBLK2
  1

  9
$DIMSTYLE
  2
STANDARD
  9
$DIMCLRD
 70
     0
  9
$DIMCLRE
 70
     0
  9
$DIMCLRT
 70
     0
  9
$DIMTFAC
 40
1.0
  9
$DIMGAP
 40
0.09
  9
$LUNITS
 70
     2
  9
$LUPREC
 70
     4
  9
$SKETCHINC
 40
0.1
  9
$FILLETRAD
 40
0.0
  9
$AUNITS
 70
     0
  9
$AUPREC
 70
     0
  9
$MENU
  1
.
  9
$ELEVATION
 40
0.0
  9
$PELEVATION
 40
0.0
  9
$THICKNESS
 40
0.0
  9
$LIMCHECK
 70
     0
  9
$BLIPMODE
 70
     0
  9
$CHAMFERA
 40
0.0
  9
$CHAMFERB
 40
0.0
  9
$SKPOLY
 70
     0
  9
$TDCREATE
 40
2455156.5025847452
  9
$TDUPDATE
 40
2457557.679217651
  9
$TDINDWG
 40
0.0437013889
  9
$TDUSRTIMER
 40
0.0437013079
  9
$USRTIMER
 70
     1
  9
$ANGBASE
 50
0.0
  9
$ANGDIR
 70
     0
  9
$PDMODE
 70
     0
  9
$PDSIZE
 40
0.0
  9
$PLINEWID
 40
0.0
  9
$COORDS
 70
     1
  9
$SPLFRAME
 70
     0
  9
$SPLINETYPE
 70
     6
  9
$SPLINESEGS
 70
     8
  9
$ATTDIA
 70
     1
  9
$ATTREQ
 70
     1
  9
$HANDLING
 70
     1
  9
$HANDSEED
  5
260A
  9
$SURFTAB1
 70
     6
  9
$SURFTAB2
 70
     6
  9
$SURFTYPE
 70
     6
  9
$SURFU
 70
     6
  9
$SURFV
 70
     6
  9
$UCSNAME
  2

  9
$UCSORG
 10
0.0
 20
0.0
 30
0.0
  9
$UCSXDIR
 10
1.0
 20
0.0
 30
0.0
  9
$UCSYDIR
 10
0.0
 20
1.0
 30
0.0
  9
$PUCSNAME
  2

  9
$PUCSORG
 10
0.0
 20
0.0
 30
0.0
  9
$PUCSXDIR
 10
1.0
 20
0.0
 30
0.0
  9
$PUCSYDIR
 10
0.0
 20
1.0
 30
0.0
  9
$USERI1
 70
     0
  9
$USERI2
 70
     0
  9
$USERI3
 70
     0
  9
$USERI4
 70
     0
  9
$USERI5
 70
     0
  9
$USERR1
 40
0.0
  9
$USERR2
 40
0.0
  9
$USERR3
 40
0.0
  9
$USERR4
 40
0.0
  9
$USERR5
 40
0.0
  9
$WORLDVIEW
 70
     1
  9
$SHADEDGE
 70
     3
  9
$SHADEDIF
 70
    70
  9
$TILEMODE
 70
     1
  9
$MAXACTVP
 70
    64
  9
$PLIMCHECK
 70
     0
  9
$PEXTMIN
 10
0.0
 20
0.0
 30
0.0
  9
$PEXTMAX
 10
0.0
 20
0.0
 30
0.0
  9
$PLIMMIN
 10
0.0
 20
0.0
  9
$PLIMMAX
 10
12.0
 20
9.0
  9
$UNITMODE
 70
     0
  9
$VISRETAIN
 70
     1
  9
$PLINEGEN
 70
     0
  9
$PSLTSCALE
 70
     1
  0
ENDSEC
  0
SECTION
  2
TABLES
  0
TABLE
  2
VPORT
 70
     1
  0
VPORT
  2
*ACTIVE
 70
     0
 10
0.0
 20
0.0
 11
1.0
 21
1.0
 12
0.0024872533681291
 22
22.50008925225977
 13
0.0
 23
0.0
 14
0.5
 24
0.5
 15
0.5
 25
0.5
 16
0.0
 26
0.0
 36
1.0
 17
0.0
 27
0.0
 37
0.0
 40
45.242664822937513
 41
1.9413309982486859
 42
50.0
 43
0.0
 44
0.0
 50
0.0
 51
0.0
 71
     0
 72
  1000
 73
     1
 74
     3
 75
     0
 76
     0
 77
     0
 78
     0
  0
ENDTAB
  0
TABLE
  2
LTYPE
 70
     2
  0
LTYPE
  2
CONTINUOUS
 70
     0
  3
Solid line
 72
    65
 73
     0
 40
0.0
  0
ENDTAB
  0
TABLE
  2
LAYER
 70
     2
  0
LAYER
  2
0
 70
     0
 62
     7
  6
CONTINUOUS
  0
LAYER
  2
RONDO
 70
     0
 62
    20
  6
CONTINUOUS
  0
ENDTAB
  0
TABLE
  2
STYLE
 70
    15
  0
STYLE
  2
STANDARD
 70
     0
 40
0.0
 41
1.0
 50
0.0
 71
     0
 42
0.2
  3
txt
  4

  0
ENDTAB
  0
TABLE
  2
VIEW
 70
     0
  0
ENDTAB
  0
TABLE
  2
UCS
 70
     0
  0
ENDTAB
  0
TABLE
  2
APPID
 70
    16
  0
APPID
  2
ACAD
 70
     0
  0
APPID
  2
ACADANNOPO
 70
     0
  0
APPID
  2
ACADANNOTATIVE
 70
     0
  0
APPID
  2
ACAD_DSTYLE_DIMJAG
 70
     0
  0
APPID
  2
ACAD_DSTYLE_DIMTALN
 70
     0
  0
APPID
  2
ACAD_MLEADERVER
 70
     0
  0
APPID
  2
ACAD_PSEXT
 70
     0
  0
APPID
  2
ACAD_DSTYLE_DIMJOGGED_JOGA
 70
     0
  0
APPID
  2
ACAECLAYERSTANDARD
 70
     0
  0
APPID
  2
ACCMTRANSPARENCY
 70
     0
  0
APPID
  2
ACAD_EXEMPT_FROM_CAD_STANDARDS
 70
     0
  0
APPID
  2
ACAD_NAV_VCDISPLAY
 70
     0
  0
APPID
  2
ACAUTHENVIRON
 70
     0
  0
APPID
  2
ACDBDYNAMICBLOCKTRUENAME
 70
     0
  0
APPID
  2
ACDBDYNAMICBLOCKGUID
 70
     0
  0
APPID
  2
CONTENTBLOCKICON
 70
     0
  0
ENDTAB
  0
TABLE
  2
DIMSTYLE
 70
    16
  0
DIMSTYLE
  2
STANDARD
 70
     0
  3

  4

  5

  6

  7

 40
1.0
 41
0.18
 42
0.0625
 43
0.38
 44
0.18
 45
0.0
 46
0.0
 47
0.0
 48
0.0
140
0.18
141
0.09
142
0.0
143
25.399999999999999
144
1.0
145
0.0
146
1.0
147
0.09
 71
     0
 72
     0
 73
     1
 74
     1
 75
     0
 76
     0
 77
     0
 78
     0
170
     0
171
     2
172
     0
173
     0
174
     0
175
     0
176
     0
177
     0
178
     0
  0
ENDTAB
  0
ENDSEC
  0
SECTION
  2
BLOCKS
  0
BLOCK
  8
0
  2
$MODEL_SPACE
 70
     0
 10
0.0
 20
0.0
 30
0.0
  3
$MODEL_SPACE
  1

  0
ENDBLK
  5
21
  8
0
  0
BLOCK
 67
     1
  8
0
  2
$PAPER_SPACE
 70
     0
 10
0.0
 20
0.0
 30
0.0
  3
$PAPER_SPACE
  1

  0
ENDBLK
  5
5B
 67
     1
  8
0
  0
BLOCK
  8
0
  2
RONDO_M545
 70
     0
 10
0.0
 20
0.0
 30
0.0
  3
RONDO_M545
  1

  0
ARC
  5
25A6
  8
RONDO
 10
-26.200000000000038
 20
43.010000000000012
 30
0.0
 40
1.9899999999999849
 50
0.0
 51
90.0
  0
LINE
  5
25A7
  8
RONDO
 10
-24.21000000000004
 20
43.010000000000012
 30
0.0
 11
-24.21000000000004
 21
1.98999999999998
 31
0.0
  0
ARC
  5
25A8
  8
RONDO
 10
-23.009999999999991
 20
1.98999999999998
 30
0.0
 40
1.989999999999998
 50
180.0
 51
270.0
  0
LINE
  5
25A9
  8
RONDO
 10
-25.0
 20
1.98999999999998
 30
0.0
 11
-25.0
 21
43.010000000000012
 31
0.0
  0
ARC
  5
25AA
  8
RONDO
 10
-23.009999999999991
 20
1.98999999999998
 30
0.0
 40
1.200000000000004
 50
180.0
 51
270.0
  0
ARC
  5
25AB
  8
RONDO
 10
-26.200000000000038
 20
43.010000000000012
 30
0.0
 40
1.2000000000000091
 50
0.0
 51
90.0
  0
LINE
  5
25AC
  8
RONDO
 10
-26.200000000000038
 20
44.210000000000008
 30
0.0
 11
-43.609999999999893
 21
44.209999999999937
 31
0.0
  0
LINE
  5
25AD
  8
RONDO
 10
-43.609999999999893
 20
44.999999999999972
 30
0.0
 11
-26.200000000000038
 21
44.999999999999972
 31
0.0
  0
LINE
  5
25AE
  8
RONDO
 10
-43.609999999999893
 20
44.209999999999937
 30
0.0
 11
-43.609999999999893
 21
44.999999999999972
 31
0.0
  0
ARC
  5
25AF
  8
RONDO
 10
26.200000000000038
 20
43.010000000000012
 30
0.0
 40
1.989999999999998
 50
90.0
 51
180.0
  0
ARC
  5
25B0
  8
RONDO
 10
23.009999999999991
 20
1.98999999999998
 30
0.0
 40
1.990000000000002
 50
270.0
 51
0.0
  0
LINE
  5
25B1
  8
RONDO
 10
24.21000000000004
 20
43.010000000000012
 30
0.0
 11
24.21000000000004
 21
1.98999999999998
 31
0.0
  0
LINE
  5
25B2
  8
RONDO
 10
23.009999999999991
 20
0.7899999999999922
 30
0.0
 11
-23.009999999999991
 21
0.7899999999999922
 31
0.0
  0
LINE
  5
25B3
  8
RONDO
 10
23.009999999999991
 20
0.0000000000000284
 30
0.0
 11
-23.009999999999991
 21
-0.0000000000000284
 31
0.0
  0
LINE
  5
25B4
  8
RONDO
 10
25.0
 20
1.98999999999998
 30
0.0
 11
25.0
 21
43.010000000000012
 31
0.0
  0
LINE
  5
25B5
  8
RONDO
 10
26.200000000000038
 20
44.210000000000008
 30
0.0
 11
43.609999999999893
 21
44.210000000000008
 31
0.0
  0
LINE
  5
25B6
  8
RONDO
 10
43.609999999999893
 20
44.210000000000008
 30
0.0
 11
43.609999999999893
 21
45.000000000000021
 31
0.0
  0
LINE
  5
25B7
  8
RONDO
 10
43.609999999999893
 20
45.000000000000021
 30
0.0
 11
26.200000000000038
 21
45.000000000000021
 31
0.0
  0
ARC
  5
25B8
  8
RONDO
 10
23.009999999999991
 20
1.98999999999998
 30
0.0
 40
1.2000000000000051
 50
270.0
 51
0.0
  0
ARC
  5
25B9
  8
RONDO
 10
26.200000000000038
 20
43.010000000000012
 30
0.0
 40
1.2000000000000179
 50
90.0
 51
180.0
  0
ENDBLK
  5
25A5
  8
0
  0
ENDSEC
  0
SECTION
  2
ENTITIES
  0
INSERT
  5
25BA
  8
0
  2
RONDO_M545
 10
0.0
 20
0.0
 30
0.0
  0
ENDSEC
  0
EOF
